Guano Apes - Big In Japan Chords & Tabs

 

Big In Japan Chords & Tabs

Guano Apes Chords & Tabs

Version: 2 Type: Bass Tab 0 ratings
1 star 2 stars 3 stars 4 stars 5 stars
comments

Big In Japan Bass Tab

Guano Apes - Big in Japan
-------------------------

Figured out and tabbed by Felix Pflaum
For suggestions, questions or something else, mail to: f.i.x@gmx.de

It's not a typical Guano Apes-Song but it's cool and easy to play

NOTE: Guano Apes plays this song with guitar and bass tuned down 1/2 step 
and the bass is very loud during the verse. I just give the line in 8th notes, 
create your own rhythm or simply play eighth notes.


Intro/Chorus/Bridge
===================
Gb|-----------------|-----------------|-----------------|-----------------|
Db|-----------------|-----------------|-----------------|-----------------|
Ab|---------3-3-3-3-|-5-5-5-5-2-2-2-2-|-3-3-3-3-0-0-0-0-|-2-2-2-2-2-2-2-2-|
Eb|-0-0-0-0---------|-----------------|-----------------|-----------------|
[ Tab from: http://www.guitartabs.cc/tabs/g/guano_apes/big_in_japan_btab_ver_2.html ]
Verse
=====
Gb|-----------------|-----------------|-----------------|-----------------|
Db|-----------------|-----------------|-----------------|-----------------|
Ab|-----------------|-3-3-3-3-3-3-3-3-|-5-5-5-5-5-5-5-5-|-2-2-2-2-2-2-2-2-|
Eb|-0-0-0-0-0-0-0-0-|-----------------|-----------------|-----------------|


Then there's a part after the second chorus, which goes:
Gb|-----------------|-----------------|-----------------|-----------------|
Db|-----------------|-----------------|-----------------|-----------------|
Ab|-5-7-------------|-7-3-------------|-3-5-------------|-2---------------|
Eb|-----------------|-----------------|-----------------|-----------------|

Gb|-----------------|-----------------|-----------------|-----------------|
Db|-----------------|-----------------|-----------------|-----------------|
Ab|---------3-3-3-3-|-5-5-5-5-2-2-2-2-|-3-3-3-3-0-0-0-0-|-2-2-2-2-2-2-2-2-|
Eb|-0-0-0-0---------|-----------------|-----------------|-----------------|

OK, the structure shouldn't be a problem for you!

Comments