Grung Paal - You Chords & Tabs

 

You Chords & Tabs

Grung Paal Chords & Tabs

Version: 1 Type: Tab 0 ratings
1 star 2 stars 3 stars 4 stars 5 stars
comments

You Tab

Song Title: you
Artist: paalgrung

ref:
[ Tab from: http://www.guitartabs.cc/tabs/g/grung_paal/you_tab.html ]
Intro:
-----------------------------------------------------------------
-----------------------------------------------------------------
-----------------------------------------------------------------
-----0-----0---4-4-4-5-5-5---------------------------------------
----0-0---0-0-------------0-7-6-7-6----2-4-----------------------
--0----0-0---0---------------------2-4----7-8-7-9-10-9-----------
solo:
-----------------------------------------------------------------
-----------------------------------------------------------------
-----------------------------------------------------------------
------------------------5--5-5--5----2----2----------------------
-------12--12--12--12--5--5---5--5--1--1-3--3--12--12--12--12----
-----12--14--15--17---8--8-----8---0--0-0--0-12--14--15--17------

ref:
---0-----------0---------0---------0---------0------------------
--0-0---------0-0-------0-0-------0-0-------0-0-----------------
-0---0-------0---0-----0---0-----0---0-----0---0----------------
--------0---0-----0---0-----0---0-----0---0-----0---------------
---------0-0-------0-0-------0-0-------0-0-------0----3-3-4-4-4-
----------0---------0---------0---------0---------0--2-2-2-5-5-5
Comments