Grung Paal - You Never Come Back Chords & Tabs

 

You Never Come Back Chords & Tabs

Grung Paal Chords & Tabs

Version: 1 Type: Tab 0 ratings
1 star 2 stars 3 stars 4 stars 5 stars
comments

You Never Come Back Tab

song title: you never come back.
Artist: paal grung.
[ Tab from: http://www.guitartabs.cc/tabs/g/grung_paal/you_never_come_back_tab.html ]
intro:
--9-9---------------1/-4----------------------------
---8-8-------------------12----12--14---------------
----------------------------12---13-----------------
---------4-5-4-5-4-5--------------------------------
--------------------------------------7-7-----------
-------------------------------------5-5------------

solo:
------------------------------
------------------------------
------------------------------
------------------------------ 2 times.
---3-3--5-5----12-12--11-11---
--2-2----5-5---0--0---0--0----
then you have it.
good bye.
Comments