Grung Paal - St Anger Chords & Tabs

 

St Anger Chords & Tabs

Grung Paal Chords & Tabs

Version: 1 Type: Tab 0 ratings
1 star 2 stars 3 stars 4 stars 5 stars
comments

St Anger Tab

Song Title: St Anger
Artist:paalgrung

intro:

-2-2-4-6------------------0---0--------2-2-4-6-----------
-3-3-5-7-----------------0-0-0-0-0-0---3-3-5-7-----------
----------------------0-0---0---0---0--------------------
----------12--12--12-------------------------------------
------------15--15--15-----------------------------------
---------------------------------------------------------

solo 1:

-------12--------14------------------------------
-----12--12--------14----------------------------
---12------12--------14------5--6-6-6------------
-12----------12--------14------8-7-4-8-----------
-------------------------14----------------------
---------------------------14--------------------

ref:
[ Tab from: http://www.guitartabs.cc/tabs/g/grung_paal/st_anger_tab.html ]
-0-----0-----0---0---------------
--------------0-0-----0---3-3----
---------------0-----0-0-2-2-----
--0---0-0---0-----0-0---0--------
---0-0---0-0-------0----------3--
----0-----0------------------2-2-

solo 2:
------------------------------4-5-4-4--
----------------------4--------5-4-5-5-
-12--14--12--14---6-4-3-3--------------
---12--12--12--12--4-5-4-4-------------
----------------------------7----------
---------------------------9-9---------

ref:


-0------12--14--15--17---------------------------
----------12--12--12--12-------------------------
-------------------------------------------------
--0---0-----------------8--8-----8---0--0--0--0--
---0-0-------------------5--5---5--5--3--3--1--1-
----0---------------------5--5-5--5----2-----2---

The end:

-0-----------------------------
-------------------------------
-------------------------------
--0---0-9-9-7-7-4-4------------
---0-0---8---6---3-------------
----0--------------0-0-0-0-0-0-

i hope you like it.
i fink it is wery cccccoooooooooollllllllllll song!!!!!!!!!!!!!!!!!!!!
good bye.
Comments