Grung Paal - One Chords & Tabs

 

One Chords & Tabs

Grung Paal Chords & Tabs

Version: 1 Type: Tab 0 ratings
1 star 2 stars 3 stars 4 stars 5 stars
comments

One Tab

Song Title: one
Artist: paalgrung
[ Tab from: http://www.guitartabs.cc/tabs/g/grung_paal/one_tab.html ]
intro:
-0----------------------------2-4-6-2-4-8--------------------
------------------------------4-6-8-4-6-6--------------------
---------5-5-4-4-3-3-2-2-1-1---------------------------------
--0-------5---4---3---2---1----------------------------------
---0-------------------------------------5-5-4-4-3-3-2-2-1-1-
----0-------------------------------------5---4---3---2---1--

solo:
-0-----0-----0-----0------
--------------------------
--------------------------
--0---0-0---0-0---0-0---0-
---0-0---0-0---0-0---0-0--
----0-----0-----0-----0---

The end:
-6-6-6-6--------------------0---
--7-7-7-7------------------0-0--
--------------------4-4-4-0---0-
---------2-2-------3-3-3--------
----------3-3-4-4-4-------------
-------------3-3-3-------0------
Comments