Grouplove - Tongue Tied Chords & Tabs

 

Grouplove Chords & Tabs

Version: 2 Type: Tab 0 ratings
1 star 2 stars 3 stars 4 stars 5 stars
comments

Tongue Tied Tab

   
Grouplove
Tongue Tied (from iPod Touch commercial)

Tune down half a step

Introduction 

Repeat 4x
Eb|---------------------|---------------------|
Bb|---4-4-4-4-4-4-4-4---|---4-4-4-4-4-4-4-4---|
Gb|---4-4-4-4-4-4-4-4---|---4-4-4-4-4-4-4-4---|
Db|---2-2-2-2-2-2-2-2---|---2-2-2-2-2-2-2-2---|
Ab|---x-x-x-x-x-x-x-x---|---x-x-x-x-x-2-2-2---|
Eb|---0-0-0-0-0-0-0-0---|---0-0-0-0-0---------|



Riff A
Eb|---0---2-4-2---------|
Bb|---2-5-2-2-2-5-2-2---|
Gb|---2-2-2-2-2-2-2-2---|
Db|---2-2-2-2-2-2-2-2---|
Ab|---0-0-0-0-0-0-0-0---|
Eb|---------------------|

Riff B
Eb|---0-0-0-0-0-0-0-0---|
Bb|---0-0-0-0-0-0-0-0---|
Gb|---x-x-x-x-x-x-x-x---|
Db|---2-2-2/6-6-2-2-2---|
Ab|---2-2-2/6-6-2-2-2---|
Eb|---0-0-0-0-0-0-0-0---|

Riff A x2
Take me to your best friends house,
Going around this roundabout.

Riff B x2
Oh yeah.

Riff A x2
Take me to your best friends house,
I loved you then and I love you now.

Riff B x2
Oh yeah.

Chorus
[ Tab from: http://www.guitartabs.cc/tabs/g/grouplove/tongue_tied_tab_ver_2.html ]
      Dont take me                     tongue tied,
Eb|---------------------|---------------------|
Bb|---5-5-5-5-5-5-5-5---|---4-4-4-4-4-4-4-4---|
Gb|---6-6-6-6-6-6-6-6---|---4-4-4-4-4-4-4-4---|
Db|---6-6-6-6-6-6-6-6---|---4-4-4-4-4-4-4-4---|
Ab|---4-4-4-4-4-4-4-4---|---2-2-2-2-2-2-2-2---|
Eb|---------------------|---------------------|

      Dont wave no                      good bye,
Eb|---------------------|---------------------|
Bb|---9-9-9-9-9-9-9-9---|---------------------|
Gb|---9-9-9-9-9-9-9-9---|---5-5-5-5-5-5-5-5---|
Db|---9-9-9-9-9-9-9-9---|---6-6-6-6-6-6-6-6---|
Ab|---7-7-7-7-7-7-7-7---|---6-6-6-6-6-6-6-6---|
Eb|---------------------|---4-4-4-4-4-4-4-4---|
              Dont
Eb|---------------------|---------------------|
Bb|---2-2-2-2-2-2-2-2---|---2-2-2-2-2-2-2-2---|
Gb|---2-2-2-2-2-2-2-2---|---2-2-2-2-2-2-2-2---|
Db|---2-2-2-2-2-2-2-2---|---2-2-2-2-2-2-2-2---|
Ab|---0-0-0-0-0-0-0-0---|---0-0-0-0-0-0-0-0---|
Eb|---------------------|---------------------|

Riff B x2

(Transcribe by Libs)
Comments