Grouplove - Tongue Tied Chords & Tabs

 

Grouplove Chords & Tabs

Version: 1 Type: Tab 0 ratings
1 star 2 stars 3 stars 4 stars 5 stars
comments

Tongue Tied Tab

-------------------------------------------------------------------------------
			     Tongue Tied - Grouplove
-------------------------------------------------------------------------------
Tabbed by: Anderson28
Email: jacubcub@gmail.com

Tuning: Capo 1  Tabbed IN RELATION TO CAPO!


Melody played on bells or piano or whatever and is the melody to 
"Take you to your best friends house"

e|--------------------------------------------------------------------------|
B|---------------7-------------------------------7--------------------------|
G|-------7---9-------9---7---------------7---9-------9---7-------7-------6--|
D|---9-----------------------9-------9-----------------------9--------------|
A|--------------------------------------------------------------------------|
E|--------------------------------------------------------------------------|

[ Tab from: http://www.guitartabs.cc/tabs/g/grouplove/tongue_tied_tab.html ]

Here is the part played on synth or bass between lines in the verses.  Sounds
cool on guitar

e|--------------------------------------------------------------------------|
B|--------------------------------------------------------------------------|
G|-----------6---6---------------6---6--------------------------------------|
D|---0---0-------------7\0---0-------------7\-------------------------------|
A|--------------------------------------------------------------------------|
E|--------------------------------------------------------------------------|

You don't really slide all the way back to the capo, it's like a fall.  Just 
mimic the song


That's all I've got, this is my first tab.  Feel free to e-mail me about anything.  

A mix between this tab and the chords someone else posted is all you really need to 
play this song.



\ = slide down
Comments