Grouplove - Colours Chords & Tabs

 

Colours Chords & Tabs

Grouplove Chords & Tabs

Version: 1 Type: Bass Tab 0 ratings
1 star 2 stars 3 stars 4 stars 5 stars
comments

Colours Bass Tab

E:-2-2-2-2-2-2-2--|------------4----|
A:---------------4|-1-1-1-1-1-1--1-3|
D:----------------|-----------------|
G:----------------|-----------------|
[ Tab from: http://www.guitartabs.cc/tabs/g/grouplove/colours_btab.html ]
E:-2-2-2-2-2-2-2--|------------4----|
A:---------------4|-1-1-1-1-1-1--1-3|
D:----------------|-----------------|
G:----------------|-----------------|
[ Tab from: http://www.guitartabs.cc/tabs/g/grouplove/colours_btab.html ]
And repeat....

First tab, sorry if its wrong
Comments