Group X - Mario Twins Chords & Tabs

 

Mario Twins Chords & Tabs

Group X Chords & Tabs

Version: 1 Type: Bass Tab 0 ratings
1 star 2 stars 3 stars 4 stars 5 stars
comments

Mario Twins Bass Tab

URL to official Group X page : http://www.groupxarab.com/
Country : Saudi Arabia (I think)
Albums: 40 oz. Slushie, Group X


Song: Mario Twins
Band: Group X
Album: Stepping on the Crowtch owf your Americain Presidaint

[ Tab from: http://www.guitartabs.cc/tabs/g/group_x/mario_twins_btab.html ]
 Main Riff
|---|-----------------------|---------------------------|
|---|-----------5-4---------|-----------5-4-------------|
|---|---5-4---3-----4-3-----|---5-4---3-----4-3---------|
|-5-|-4-------------------5-|-4-------------------4---5-|

|---------------------------|---------------------------|
|-----------5-4-------------|-----------5-4-------------|
|---5-4---3-----4-3---------|---5-4---3-----4-3---------|
|-4-------------------5---5-|-4-------------------------|
Comments