Group X - Johnny Poopoo Pants Chords & Tabs

 

Johnny Poopoo Pants Chords & Tabs

Group X Chords & Tabs

Version: 1 Type: Bass Tab 0 ratings
1 star 2 stars 3 stars 4 stars 5 stars
comments

Johnny Poopoo Pants Bass Tab

URL to official Group X page : http://www.groupxarab.com/
Country : Saudi Arabia (I think)
Albums: 40 oz. Slushie, Group X


Song: Jonny Poopoopants
Band: Group X
Album: Stepping on the Crowtch owf your Americain Presidaint

 Intro/Chorus
|-----------------------|
|-----------------------|
|-5---5---5--4--3--2--0-|
|-----------------------|

|-----------------------|---------------------|
|-----5------------5----|-----5---------------|
|-----------------------|---------------3h5---|
|-3------------3--------|-3------3--3---------|

|-----------------------|---------------------|
|-----5------------5----|-----5---------------|
|-----------------------|---------------------|
|-3------------3--------|-3------3--3---3-----|

|-----------------------|---------------------|
|-----7------------7----|-----5---------------|
|-----------------------|---------------------|
|-5------------5--------|-3------3--3---3-----|

|-----------------------|
|-----------------------|
|-5---5---5--4--3--2--0-|
|-----------------------|

|-----------------------|---------------------|
|-----5------------5----|-----5---------------|
|-----------------------|---------------3h5---|
|-3------------3--------|-3------3--3---------|

|-----------------------|---------------------|
|-----5------------5----|-----5---------------|
|-----------------------|---------------3h5---|
|-3------------3--------|-3------3--3---------|

|-----------------------|---------------------|
|-----7------------7----|-----5---------------|
|-----------------------|---------------------|
|-5------------5--------|-3------3--3---3-----|

|-----------------------|
|-----------------------|
|-5---5---5--4--3--2--0-|
|-----------------------|

Verse
|-----------------------|
|-----------------------|
|-------bass-out--------|
|-----------------------|

Chorus
|-----------------------|
|-----------------------|
|-5---5---5--4--3--2--0-|
|-----------------------|

|-----------------------|---------------------|
|-----5------------5----|-----5---------------|
|-----------------------|---------------3h5---|
|-3------------3--------|-3------3--3---------|

|-----------------------|---------------------|
|-----5------------5----|-----5---------------|
|-----------------------|---------------3h5---|
|-3------------3--------|-3------3--3---------|
[ Tab from: http://www.guitartabs.cc/tabs/g/group_x/johnny_poopoo_pants_btab.html ]
|-----------------------|---------------------|
|-----7------------7----|-----5---------------|
|-----------------------|---------------------|
|-5------------5--------|-3------3--3---3-----|

|-----------------------|
|-----------------------|
|-5---5---5--4--3--2--0-|
|-----------------------|

|-----------------------|---------------------|
|-----5------------5----|-----5---------------|
|-----------------------|---------------3h5---|
|-3------------3--------|-3------3--3---------|

|-----------------------|---------------------|
|-----5------------5----|-----5---------------|
|-----------------------|---------------------|
|-3------------3--------|-3------3--3---3-----|

|-----------------------|---------------------|
|-----7------------7----|-----5---------------|
|-----------------------|---------------------|
|-5------------5--------|-3------3--3---3-----|

|-----------------------|
|-----------------------|
|-5---5---5--4--3--2--0-|
|-----------------------|

 Outro (The Godthaim Remixt)
|-----------------------|---------------------|
|-----------------------|---------------------|
|-----------------7\----|----------------7\---|
|-3-------3--3----------|-3------3--3---------|

|-----------------------|---------------------|
|-----------------------|---------------------|
|-----------------------|--------------/10\---|
|-3-------3--3---0-3-0--|-3------3--3---------|

|-----------------------|---------------------|
|-----------------------|---------------------|
|-----------------------|---------------------|
|-3-------3--3---0-3-0--|-3------3--3---0-3-0-|

|-----------------------|---------------------|
|-----------------------|---------------------|
|-----------------7\----|---------------------|
|-3-------3--3----------|-3------3--3---0-3-0-|

|-----------------------|---------------------|
|-----------------------|------------------5--|
|-----------------7\----|---------------5-----|
|-3-------3--3----------|-3------3--3---------|

|-----------------------|---------------------|
|-----------------------|------------------5--|
|-----------------7\----|---------------5-----|
|-3-------3--3----------|-3------3--3---------|

|-----------------------|---------------------|
|-----------------------|---------------------|
|-----------------------|----------------7\---|
|-3-------3--3---0-3-0--|-3------3--3---------|

|-----------------------|---------------------|
|-----------------------|------------------5--|
|-----------------------|---------------5-----|
|-3-------3--3---0-3-0--|-3------3--3---------|
Comments