Group X - I Just Want Bang Bang Bang Chords & Tabs

 

I Just Want Bang Bang Bang Chords & Tabs

Group X Chords & Tabs

Version: 1 Type: Bass Tab 0 ratings
1 star 2 stars 3 stars 4 stars 5 stars
comments

I Just Want Bang Bang Bang Bass Tab

|-----------------------------|---------------------------|
|-2-2-2-2-2-----------------0-|-2-2-2-2-2-----------------|
|--------------------3--2-2---|-------------------0-------|
|-----------0-2-3--2----------|-----------0-2-3-2---3-3-2-|

|-----------------------------|---------------------------|
|-2-2-2-2---------------------|-2-2-2-2-------------------|
|---------3---2-3--2----------|---------3---5-3-----------|
|--------------------3--0-2-3-|---------------------0-2-3-|

|-----------------------------|---------------------------|
|-2-2-2-2---------------------|-2-2-2-2-------------------|
|---------3---5-3--2-3-2------|---------3---5-3-------2-3-|
|-------------------------3-2-|---------------------------|

|-----------------------------|---------------------------|
|-2-2-2-2---------------------|-2-2-2-2-------------------|
|---------3---5-3--2-3-2------|---------3---5-3-----------|
|-------------------------3-2-|---------------------0-2-3-|

|-----------------------------|---------------------------|
|-2-2-2-2---------------------|-2-2-2-2-------------------|
|---------3---5-3--2-3-2----0-|---------3---5-3-----------|
|-------------------------3---|---------------------------|

|-----------------------------|---------------------------|
|-2-2-2-2-2-----------------0-|-2-2-2-2-2-----------------|
|--------------------3--2-2---|-------------------0-------|
|-----------0-2-3--2----------|-----------0-2-3-2---3-3-2-|

|-----------------------------|---------------------------|
|-2-2-2-2-2-----------------0-|-2-2-2-2-2-----------------|
|--------------------3--2-2---|-------------------0-------|
|-----------0-2-3--2----------|-----------0-2-3-2---3-3-2-|
[ Tab from: http://www.guitartabs.cc/tabs/g/group_x/i_just_want_bang_bang_bang_btab.html ]
|-----------------------------|---------------------------|
|-2-2-2-2---------------------|-2-2-2-2-------------------|
|---------3---2-3--2-3-2----0-|---------3---2-3-----------|
|-------------------------3---|---------------------0-2-3-|

|-----------------------------|---------------------------|
|-2-2-2-2---------------------|-2-2-2-2-------------------|
|---------3---2-3--2-3-2-/532-|---------3---2-3-----------|
|-----------------------------|---------------------0-2-3-|

|-----------------------------|---------------------------|
|-2-2-2-2---------------------|-2-2-2-2-------------------|
|---------3---2-3--2-3-2----0-|---------3---2-3------/532-|
|-------------------------3---|---------------------------|

|-----------------------------|---------------------------|
|-2-2-2-2---------------------|-2-2-2-2-------------------|
|---------3---2-3--2-3-2------|---------3---2-3-----------|
|-----------------------0-2-3-|---------------------------|

|-----------------------------|---------------------------|
|-2-2-2-2-2-----------------0-|-2-2-2-2-2-----------------|
|--------------------3--2-2---|-------------------0-------|
|-----------0-2-3--2----------|-----------0-2-3-2---3-3-2-|

|-----------------------------|---------------------------|
|-2-2-2-2-2-----------------0-|-2-2-2-2-2-----------------|
|--------------------3--2-2---|-------------------0-------|
|-----------0-2-3--2----------|-----------0-2-3-2---3-3-2-|

|-----------------------------|---------------------------|
|-2-2-2-2-2-----------------0-|-2-2-2-2-2-----------------|
|--------------------3--2-2---|-------------------0-------|
|-----------0-2-3--2----------|-----------0-2-3-2---3-3-2-|

|-----------------------------|---------------------------|
|-2-2-2-2-2-----------------0-|-2-2-2-2-2-----------------|
|--------------------3--2-2---|-------------------0-------|
|-----------0-2-3--2----------|-----------0-2-3-2---3-3-2-|
Comments