Groundation - Long Long Ago Chords & Tabs

 

Long Long Ago Chords & Tabs

Groundation Chords & Tabs

Version: 1 Type: Tab 0 ratings
1 star 2 stars 3 stars 4 stars 5 stars
comments

Long Long Ago Tab

   
-----------------------------------------------------------------------------
			  Groundation - Long, Long Ago
-----------------------------------------------------------------------------
Tabbed by: gotta have kaya


(u)=upstrum


main riff:  
   Am    G   Dm  Em   Am
              (u) 
e|-5-5--3-3--5-5\7-7--5-5--|
B|-5-5--3-3--6-6\8-8--5-5--|
G|-5-5--4-4--7-7\9-9--5-5--|
D|-7-7--5-5--7-7\9-9--7-7--|
A|-7-7--5-5--5-5\7-7--7-7--|
E|-5-5--3-3-----------5-5--|


2nd riff: starts at 1:14, 2:57, 4:40
  Em        D                  Em        D    C   D
[ Tab from: http://www.guitartabs.cc/tabs/g/groundation/long_long_ago_tab.html ]
e|-7-7-7-7--5-5-5-5--(3 times)|-7-7-7-7--5-5--333-555--|
B|-8-8-8-8--7-7-7-7-----------|-8-8-8-8--7-7--555-777--|
G|-9-9-9-9--7-7-7-7-----------|-9-9-9-9--7-7--555-777--|
D|-9-9-9-9--7-7-7-7-----------|-9-9-9-9--7-7--555-777--|
A|-7-7-7-7--5-5-5-5-----------|-7-7-7-7--5-5--333-555--|
E|----------------------------|------------------------|


chorus: starts at 1:43, 3:26, 5:09
   Em    D    C             D    Em
  (u)               (u)
e|-77-7--5-5--3-3-3-33-3-3--5-5--7-7-7-7--(2 times)|
B|-88-8--7-7--5-5-5-55-5-5--7-7--8-8-8-8-----------|
G|-99-9--7-7--5-5-5-55-5-5--7-7--9-9-9-9-----------|
D|-99-9--7-7--5-5-5-55-5-5--7-7--9-9-9-9-----------|
A|-77-7--5-5--3-3-3-33-3-3--5-5--7-7-7-7-----------|
E|-------------------------------------------------|


order of music in song:
main riff
2nd riff
chorus
main riff
2nd riff
chorus
main riff
2nd riff
chorus
main riff

...let me know what you think.
one love
===============================================================================
Comments