Groovenics - Chopsticks Chords & Tabs

 

Chopsticks Chords & Tabs

Groovenics Chords & Tabs

Version: 1 Type: Tab 0 ratings
1 star 2 stars 3 stars 4 stars 5 stars
comments

Chopsticks Tab

 Groovenics
“Chopsticks”
One Fearce wedge
 Intro
E----------------------------------------------------- 
B-----------------------------------------------------
G----------------------------------------------------- 
D----------------------------------------------------- 
A-5-5--12-9-9-9-9-10-9-10-9--5-5--12--9-9-9-9-10-[10]-
e-3-3--10-7-7-7-7-8-7-8--7---3-3--10--7-7-7-7-8-- [8]- 
                                       
E----------------------------------------------------- 
B----------------------------------------------------- 
G----------------------------------------------------- 
D----------------------------------------------------- 
A-5-5--12-9-9-9-9-10-9-10-9---5-5--12--9-9-9-9-7-[7]--
E-3-3--10-7-7-7-7-8--7-8--7---3-3--10--7-7-7-7-5-[5]-- 
  						repeat 2x
{After the keyboard solo repeat intro}
[ Tab from: http://www.guitartabs.cc/tabs/g/groovenics/chopsticks_tab.html ]
E----------------------------------------------------- 
B----------------------------------------------------- 
G----------------------------------------------------- 
D----------------------------------------------------- 
A-5-[-][-]-10-[-]-9-[-]-10---------------------------- 
E-3-[-][-]-8--[-]-7-[-]-8-----------------------------
Repeat 3x                                                               

E-----------------------------------------------------
B-----------------------------------------------------
g----------------------------------------------------- 
D----------------------------------------------------- 
A-10-10[-]-10-[-]-12-12-10-9-9-10-9-7-5--------------- 
E-8-8--[-]-8--[-]-10-10-8--7-7-8--7-5-3---------------
								
E----------------------------------------------------	
E---------------------------------------------------- 
B---------------------------------------------------- 
G---------------------------------------------------- 
D---------------------------------------------------- 
A-5-5-5-12-12-12-10-10-10--------[AFTER ]-10-10-10-10 
e-3-3-3-10-10-10-8--8--8---------[EIGHTH]-8--8--8--8-
repeat 8x						RETURN TO INTRO
Comments