Grinspoon - Violent And Lazy Chords & Tabs

 

Violent And Lazy Chords & Tabs

Grinspoon Chords & Tabs

Version: 3 Type: Tab 0 ratings
1 star 2 stars 3 stars 4 stars 5 stars
comments

Violent And Lazy Tab

Artist: Grinspoon
Song: Violent and Lazy
Album: Easy
Transcribed By: Tony Trajkov
Email Me At: trojantony_69@hotmail.com

Ive looked around for some tabs for this song but none of them
seem to be right. So i thought id figure it all out and put the
song together the way i learnt it. And ill tell you all now,
this tab is 100% correct.

Dropped D Tuning


Verse riff
E|------------------|----------------------------------|
B|------------------|----------------------------------|
G|------------------|----------------------------------|
D|------------------|----------------------------------|
A|--7-7-7-7-5--0-2--|--7-7-5-7-9-7-5--0-0--2--0-2-2----|
D|--5-5-5-5-5--0-2--|--5-5-5-5-5-5-5--0-0--2--0-2-2----|


Then play this to head into the chorus
(Note: Palm mute these chords and slowly ease off before chorus comes in)
E|--------------------|
B|--------------------|
G|--------------------|
D|--0-0-0-0-0-0-0-0---|
A|--0-0-0-0-0-0-0-0---|
D|--0-0-0-0-0-0-0-0---|


Chorus riff
E|--------------------|-------------------|
B|--------------------|-------------------|
G|--------------------|-------------------|
D|--2--2--2--2--2--2--|--5--5--5--5--5--5-|
A|--2--2--2--2--2--2--|--5--5--5--5--5--5-|
D|--2--2--2--2--2--2--|--5--5--5--5--5--5-|

E|--------------------------------------|
B|--------------------------------------|
G|--------------9--9--9--7--9/11--9--0--|
D|--0--0--0--0--0--0--0--0--0--0--0--0--|
A|--0--0--0--0--0--0--0--0--0--0--0--0--|
D|--0--0--0--0--0--0--0--0--0--0--0--0--|
[ Tab from: http://www.guitartabs.cc/tabs/g/grinspoon/violent_and_lazy_tab_ver_3.html ]
End with
E|----------------------------|
B|----------------------------|
G|----------------------------|
D|----2--------5--------0-----|
A|----2--------5--------0-----|
D|----2--------5--------0-----|
(Hold the chords for as long as needed)


Just thought i may as well throw in the lyrics
for anyone new to the song:


And it's all over
Sin in the ratty air
I got suspended
Suspended in the air
I tried to kiss you
But you were never there
I went a-looking
Found you everywhere
Violent and lazy, barbershop sport
Grass doesn't grow on a busy sidewalk
And it's all over
Sin in the ratty yard
No, there's no pressure
Force fed buisness cards
I tried to kill him
Tried to kill you rock-n-roll star
Founding a bad trip
Some corperate facade
Violent and lazy, barbershop sport
Grass doesn't grow on a busy sidewalk
So now it's over
Envy the ratty star
Cause thats a winner
Love those business car
You're still pretending
Still sending those Christmas cards
And talking back there
Waiting at the bar
Violent and lazy, barbershop sport
Grass doesn't grow on a busy sidewalk
Violent and lazy, barbershop sport
Grass doesn't grow on a busy sidewalk
Violent and lazy, barbershop sport


You'll have to work out the strumming pattern yourself.
Just listen to it, heaps easy. But thats basically the
whole song. And i promise you this is the right way to
play it. There is also a second guitar that you can hear
in some parts of the song that plays a few of the chords
with some distortion on, but i wouldnt worry about that
at all. If you have any questions at all, just email me
at trojantony_69@hotmail.com

Id also like to thank a few people just randomly.
Thanks to milly, joel, rhys, jared, simmo and jacky.
Comments