Grinspoon - Ready One Chords & Tabs

 

Ready One Chords & Tabs

Grinspoon Chords & Tabs

Version: 2 Type: Tab 0 ratings
1 star 2 stars 3 stars 4 stars 5 stars
comments

Ready One Tab

Song:Ready 1
Artist:Grinspoon
Tabbed by: Pix

This song is played with drop D tuning

Intro:
-------------------------------------------------------------------
-------------------------------------------------------------------
-------------------------------------------------------------------
--9-9-9--4--12-12-12--5-5-7---------------repeat a couple of times 
--9-9-9--4--12-12-12--5-5-7-----------------------------------------
--9-9-9--4--12-12-12--5-5-7----------------------------------------

Verse:
[ Tab from: http://www.guitartabs.cc/tabs/g/grinspoon/ready_one_tab_ver_2.html ]
-------------------------------------------------------------------
-------------------------------------------------------------------
---------------------------------------------------------
--9-9-9-9-9-9------------------------------------------------------
--9-9-9-9-9-9------------------------------------------------------
--9-9-9-9-9-9------------------------------------------------------
repeat, i don't know the little riff at the end of each line

Chorus:

-------------------------------------------------------------------
-------------------------------------------------------------------
---------------------------------------------------------
--9-9-9-9-9-9--5-5-5-5-5-5--2-2-2-2-2-2--7-7-7-7-7-7--------------
--9-9-9-9-9-9--5-5-5-5-5-5--2-2-2-2-2-2--7-7-7-7-7-7---------------
--9-9-9-9-9-9--5-5-5-5-5-5--2-2-2-2-2-2--7-7-7-7-7-7---------------

Comments