Grinspoon - Ready 1 Chords & Tabs

 

Ready 1 Chords & Tabs

Grinspoon Chords & Tabs

Version: 1 Type: Bass Tab 0 ratings
1 star 2 stars 3 stars 4 stars 5 stars
comments

Ready 1 Bass Tab

Artist: Grinspoon
Song: Ready 1
Album: Easy

Tabbed By Andrew O'Neil (Grunter@mail.com)

Drop to D Tuning


Intro

|-----------------------|
|-----------------------| (PLAY 4 TIMES)
|----------5------------|
|-9-9-9--4---0-55-77-88-|


Verse

|-----------------------|
|-----------------------|
|----------5------------|
|-9-9-9--4---0-55-77-88-|


Chorus
[ Tab from: http://www.guitartabs.cc/tabs/g/grinspoon/ready_1_btab.html ]
|-----------------------------------|
|-----------------------------------| (Play 4 TIMES)
|-----------------------------------|
|-9-9-97-5-5-5555--2-2-22-22-2-2222-|


Bridge

|-----------------------------------|
|-----------------------------------| (PLAY 4 TIMES)
|------------------7-7-7------------|
|-9-9-9--7-77-6666--------6-66-7777-|

Tabbed By Grunter
Grunter@mail.com
Comments