Grinspoon - No Reason Chords & Tabs

 

No Reason Chords & Tabs

Grinspoon Chords & Tabs

Version: 7 Type: Tab 0 ratings
1 star 2 stars 3 stars 4 stars 5 stars
comments

No Reason Tab

ok, this is the real version of no reason by grinspoon


KEY;
b=bend string(s)

s=slide string(s)

h=hammer string(s) on to.


INTRO: WITH DISTORTION


E|-----------------------|
B|------------b----------|
G|-6-6--8-8--8-8--9--8-6-|
D|-6-6--8-8--8-8--9--8-6-|x2
A|-4-4--6-6--6-6--10-6-4-|
E|------------b----------|


VERSES: WITHOUT DISTORTION

E|--------------------------5--|
B|--------------------------5--|
G|----------------s------------|
D|-2-2-3-4-6-6--9--11-11-7-----|JUST KEEP DOING THROUGH ALL THE VERSES
A|-2-2-3-4-6-6--9--11-11-7-----|
E|-0-0-1-2-4-4--7--9--9--5-----|

BRIDGE:WITH DISTORTION |
              ---------|
SAME AS INTRO |
              |
--------------|

HALF BRIDGE AFTER THE FULL BRIDGE:WITH DISTORTION
[ Tab from: http://www.guitartabs.cc/tabs/g/grinspoon/no_reason_tab_ver_7.html ]
E|----------|
B|----------|
G|--x8--x5--|
D|---7--9---|
A|---7--9---|
E|---5--7---|

BACK TO VERSES

THEN BRIDGE 

THEN HALF BRIDGE

A FEW VERSES


LEAD;

E|---12-----11------9--------------|
B|-12--12-12---12-12-12---10-9-----|
G|---------------------------------|
D|---------------------------------|
A|---------------------------------|
E|---------------------------------|
                                          DO ALL THIS TWO TIMES

E|---12-------11-------9---------------|
B|-12--12---12--12---12-12-------------|
G|-------------------------------11-9--|
D|-------------------------------------|
A|-------------------------------------|


THEN SOME OF THE VERSES

THEN INTRO AND FINISH



BY TAINUI-adrunkenmooose@hotmail.com
E|-------------------------------------|
Comments