Grinspoon - Lost Control Chords & Tabs

 

Lost Control Chords & Tabs

Grinspoon Chords & Tabs

Version: 3 Type: Tab 0 ratings
1 star 2 stars 3 stars 4 stars 5 stars
comments

Lost Control Tab

GRINSPOON LOST CONTROL
TABBED by Thomas Fleay

Tried my best I know the chorus is pretty wrong coz I suck at tabbing 
stuff but should give you a starting point 
EMAIL at blah_bla_blo@hotmail.com for corrections and stuff like that

BRIDGE
|---------------------------|
|---------------------------|
|-77777777------------------|
|-77777777--4p3-4p3-0h3-5---|
|-99999999--4p3-4p3-0h3-5-3-|
|-00000000----------------3-|
  ........

VERSES
|-----|-----|-----|-----|---------------|
|-----|-----|-----|-----|---------------|
|-----|-----|-----|-----|---------------|
|-0-6-|-0-6-|-0-6-|-0-6-|-6-6-6-5-5-7-7-|
|-0-6-|-0-6-|-0-6-|-0-6-|-6-6-6-5-5-7-7-|
|-0-4-|-0-4-|-0-4-|-0-4-|-4-4-4-3-3-5-5-|

CHORUS
 BAR1            BAR2            BAR3
|---------------|---------------|-----------------------------
|---------------|---------------|-----------------------------
|---x-10--------|---x-10--------|-999999999999911111111111111-
|-6-x-10-9-99-9-|-6-x-10-9-98-8-|-999999999999911111111111111-
|-6-x--8-9-99-9-|-6-x--8-9-98-8-|-7777777777777-9-9-9-9-9-9-9-
|-4-0--0-7-77-7-|-4-0--0-7-76-6-|-----------------------------

---------------|
---------------|
13131313131313-|
13131313131313-|
11111111111111-|
---------------|

INTERLUDE
|----------------------------------|
|----------------------------------|
|----------------------------------|
|----------------------------------|
|--------------789-----------------|
|-0000000000000---0000000000000788-|

|----------------------------------|
|----------------------------------|
|----------------------------------|
|----------------------------------|
|-xxxxxxxxxxxxx789xxxxxxxxxxxxx78--|
|-0000000000000---0000000000000788-|
  .............   .............

=======================================================================
!!!!!!!!!!!!!!!!!!!!!!!!!!CORRECTED VERSION!!!!!!!!!!!!!!!!!!!!!!!!!!!!
=======================================================================


GRINSPOON LOST CONTROL
TABBED by Thomas Fleay
[ Tab from: http://www.guitartabs.cc/tabs/g/grinspoon/lost_control_tab_ver_3.html ]
I tried correcting this ‘coz I bought their new cd “NEW DETENTION” and its easier 
hear. b4 I was working off a really bad mp3 but still some stuff needs to be 
corrected coz as I said I suck at tabbing plz send me a correction if u can =)

BRIDGE
 BAR 1
|---------------------------|
|---------------------------|
|-77777777------------------|
|-77777777--5p3-4p3-0h3-5---|
|-99999999--5p3-4p3-0h3-5-5-|
|-00000000----------------3-|
  ........ 

 BAR 2
|-------------------------|
|-------------------------|
|-77777777----------------|
|-77777777--5p3-4p3-0h3-5-|
|-99999999--5p3-4p3-0h3-5-|
|-00000000----------------|
  ........


VERSES
|-----|-----|-----|------|---------------|
|-----|-----|-----|------|---------------|
|-----|-----|-----|------|---------------|
|-0-6-|-0-6-|-0-6-|-0-6~-|-6-6-6-5-5-7-7-|
|-0-4-|-0-4-|-0-4-|-0-4~-|-6-6-6-5-5-7-7-|
|-0---|-0---|-0---|-0----|-4-4-4-3-3-5-5-|


CHORUS
 BAR1               BAR2              BAR3 all downstrokes
|------------------|-----------------|-----------------------------
|------------------|-----------------|-----------------------------
|---x-10-----------|-----------------|-999999999999911111111111111-
|-6-x-10-5-55-5-55-|-6-x-5~5-55-5-55-|-999999999999911111111111111-
|-6-x--8-3-33-3-33-|-6-x-3~3-33-3-33-|-7777777777777-9-9-9-9-9-9-9-
|-4-0--0-----------|-4-0-------------|-----------------------------


---------------|
---------------|
13131313131313-|
13131313131313-|
11111111111111-|
---------------|

INTERLUDE
|----------------------------------|
|----------------------------------|
|----------------------------------|
|----------------------------------|
|--------------789-----------------|
|-0000000000000---0000000008799987-|

|----------------------------------|
|----------------------------------|
|----------------------------------|
|----------------------------------|
|-xxxxxxxxxxxxx789xxxxxxxxx--------|
|-0000000000000---0000000008799987-|
  .............   .........
over the top of this there’s a second guitar playing with some effects or harmonics 
or something.


ORDER
BRIDGE bar1 x 3
BRIDGE bar2 x 1
VERSE x 2
CHORUS bar1
CHORUS bar2
CHORUS bar1
CHORUS bar2
CHORUS bar3
BRIDGE bar1 x 3
BRIDGE bar2 x 1
VERSE x 2
CHORUS bar1
CHORUS bar2
CHORUS bar1
CHORUS bar2
CHORUS bar3
INTERLUDE bar 1 x1
INTERLUDE bar 2 x3
VERSE x 2
CHORUS bar1
CHORUS bar2
CHORUS bar1
CHORUS bar2
CHORUS bar3
BRIDGE x 4
Comments