Grinspoon - Lost Control Chords & Tabs

 

Lost Control Chords & Tabs

Grinspoon Chords & Tabs

Version: 2 Type: Bass Tab 0 ratings
1 star 2 stars 3 stars 4 stars 5 stars
comments

Lost Control Bass Tab

Tunning DADG
Intro/Outro/Middel Part
G|--------------------------------------------------------|
D|--------------------------------------------------------|
A|--------------------------------------------------------|
D|-000000000-5-4-3-0-4-5----------------------------------|

Verse Part 1
G|-------|
D|-------|
A|-------|
D|--0-3--| x4

Verse Part 2
G|---------------------|---------------------------|
D|---------------------|-----------0000------------|
A|---------------------|----------------3----------|
D|--5-5-4-3-0-0-3-4-5--|x1----0-3---------5--------|  

G|-----------------------|
D|-------66666-5-3-------|
A|-----------------------|
D|-0-3-------------------|
[ Tab from: http://www.guitartabs.cc/tabs/g/grinspoon/lost_control_btab_ver_2.html ]
Chours
G|------------------------------------------|
D|------------------------------------------|
A|----------------------------3-3-----------|
D|----0--12/--x--3-3-----------------x-5-5--|x3

G|------------------------------------------|
D|------------------------------------------|
A|-------------------33333333---------------|
D|-3333333333333333------------5555555555---|x1

Interlude
G|--------------------------------|
D|-----------------5-6-7----------|
A|--------------------------------|
D|-000000000000-------------------|

G|--------------------------------|
D|--------------------------------|
A|--------------------3-5--3-5----|
D|-00000000-------0------0-----00-|

this song is easy to figue out were to play the riffs

any comments my email is eels_rule1333@hotmail.com
Comments