Grinspoon - Hold On Me Chords & Tabs

 

Hold On Me Chords & Tabs

Grinspoon Chords & Tabs

Version: 1 Type: Bass Tab

Hold On Me Bass Tab

   
hold on me

artist: Grinspoon
album: thrills kills and sunday pills
tabbed by: josh ramsey	
email: ramsey14266@hotmail.com
tuning: standard
other tab i saw from matthew hetherington has bits left out

Intro
G|------------|
D|------------|   x4	 
A|-3----------|
E|---33-5-353-|

Verse
G|-----------------------------------------|
D|-----------------------------------------|   x4  
A|------------------8b-8b-8b-8b-5b-5b-53---|
E|-5555555555555555---------------------30-|
[ Tab from: http://www.guitartabs.cc/tabs/g/grinspoon/hold_on_me_btab.html ]
Pre-chorus
G|------------------|
D|------------------|   x3
A|---------5-5-53---|
E|-1-1-1-1-------30-|

chorus part 1
G|-----------------|
D|-----------------|
A|-------------333-|
E|-555-333-222-----|

chorus part 2
G|-------------------|
D|-------------------|
A|-------------------|
E|-11-011-011-011-33-|

verse x5
pre chorus x4
chorus part 1 x3
chorus part 2 x1
intro x6 during solo
verse x2
prechorus x3
chorus part1 x3
chorus part 2 x1

outro
G|----------------------|
D|----------------------|
A|-------------------00-|
E|-11-011-011-011-33----|