Grinspoon - Hard Act To Follow Chords & Tabs

 

Hard Act To Follow Chords & Tabs

Grinspoon Chords & Tabs

Version: 1 Type: Bass Tab 0 ratings
1 star 2 stars 3 stars 4 stars 5 stars
comments

Hard Act To Follow Bass Tab

Grnspoon-Hard act to follow

standard tuning
tabber-Josh Ramsey
first tab so any questions feedback or errors email me on from_this_day2003@yahoo.com


guitar 4x first
intro/verse
G|---------------|
D|---------------|
A|-222-22-20-5---|
E|-------------0-|
[ Tab from: http://www.guitartabs.cc/tabs/g/grinspoon/hard_act_to_follow_btab.html ]
bridge
G|--------------------------------------|
D|--------------------------------------|
A|------------------55555555------------|
E|-0000000000000000----------55555555-5~|

chorus
G|------------------------------------|
D|------------------------------------|
A|-2-2-2-222-5-5-555------------------|
E|-------------------5-5-5-55-333-550-|

during solo
G|----------------------------|
D|----------------------------|
A|-222-2-0-5-0----------------|
E|-------------000--3-33-5-55-|

thanks plpease rate
Comments