Grinspoon - Chemical Heart Chords & Tabs

 

Chemical Heart Chords & Tabs

Grinspoon Chords & Tabs

Version: 6 Type: Tab 0 ratings
1 star 2 stars 3 stars 4 stars 5 stars
comments

Chemical Heart Tab

Drop D Tuning

Verse
-----10-------10--------10-------8------7------7----------
--------10-------10--------10/8----8------8------8--------
----------------------------------------------------------
-----------0---------0----------------0------0------------
----------------------------------------------------------
-0------------------------------ Repeat Throughout Verse--


[ Tab from: http://www.guitartabs.cc/tabs/g/grinspoon/chemical_heart_tab_ver_6.html ]
Chorus
----------------------------------------------------------
--5/7-7-7----7-7-7/10--10-10-----12-----7-7-7-------------
--5/7-7-7----7-7-7/9----9--9-----11-----7-7-7-------------
----------------------------------------------------------
----------------------------------------------------------
----------------------------------------------------------

Tabbed By Carly Ford
Comments