Grinspoon - Chemical Heart Full Song Chords & Tabs

 

Chemical Heart Full Song Chords & Tabs

Grinspoon Chords & Tabs

Version: 1 Type: Bass Tab 0 ratings
1 star 2 stars 3 stars 4 stars 5 stars
comments

Chemical Heart Full Song Bass Tab

Grinspoon – Chemical Heart Bass Tab.

Drop D Tunning; make the top string (e) on the seventh fret sound the same as the 3rd string (a). 

Intro
G------------------------------------------------------------------------------------------------
D-------0------------0------------0------------0------------0------------0------------0--- x1
A----------------------------------------------------------------------------------------------
E------------------------------------------------------------------------------------------------

1st verse 
G------------------------------------------------------------------------------------------------
D-------------------------------------------------------------------------------------------
A----5-----3-----7-8------5-------------------------------------------------------------- x3
E------------------------------------------------------------------------------------------------
Hold the last 5 for 4 beats
+
End of 1st verse
Play this while they are singing the second “we’ll see” (just before chorus)
G------------------------------------------------------------------------------------------------
D-------------------------------------------------------------------------------------------
A-------5---------6------------------------------------------------------------------------ x1
E------------------------------------------------------------------------------------------------


1st Chorus
G------------------------------------------------------------------------------------------------
D-------------------------------------------------------------------------------------------
A---5-5-5-5-5-5-5-5-----------------------5-5-5-------------------------------------- x4
E---------------------------3-3------5-5------------------------------------------------------

Before 2nd Verse  
G------------------------------------------------------------------------------------------------
D---------0---------0---------------------------------------------------------------------- x1
A-------------------------------------------------------------------------------------------
E------------------------------------------------------------------------------------------------
[ Tab from: http://www.guitartabs.cc/tabs/g/grinspoon/chemical_heart_full_song_btab.html ]
2nd Verse
G------------------------------------------------------------------------------------------------
D-------------------------------------------------------------------------------------------
A----5------3-------7-8-----5------------------------------------------------------------ x3
E------------------------------------------------------------------------------------------------
Hold the last 5 for 4 beats
+
End of 2nd Verse
Play while they are singing 2nd “no one” (just before chorus)
G------------------------------------------------------------------------------------------------
D------------------------------------------------------------------------------------------- x1
A---------5--------6-----------------------------------------------------------------------
E------------------------------------------------------------------------------------------------


2nd Chorus
G------------------------------------------------------------------------------------------------
D-------------------------------------------------------------------------------------------
A---5-5-5-5-5-5-5-5----------------------5-5-5--------------------------------------- x4
E---------------------------3-3-----5-5--------------------------------------------------------

Bridge 
Play all once then play from the 5’s 2 more times
G------------------------------------------------------------------------------------------------
D------------------------------------------------------------------------------------------------
A---8-8-8-8-8-8-7-7-7----------5-5-4-4-4-4-3-3-2-0-2-3-4-5------------------------ 
E------------------------------------------------------------------------------------------------

3rd Verse 
G------------------------------------------------------------------------------------------------
D--------0----------0----------0----------0----------------------------------------------- x1
A--------------------------------------------------------------------------------------------
E------------------------------------------------------------------------------------------------

3rd chorus 
G------------------------------------------------------------------------------------------------
D-------------------------------------------------------------------------------------------
A---5-5-5-5-5-5-5-5-------------------------5-5-5------------------------------------ x7
E--------------------------3-3---------5-5-----------------------------------------------------

+
Play this right before the song ends
G------------------------------------------------------------------------------------------------
D--------------------------------------------------------------------------------------------
A—5-5-5-5-5-5-4-4-4------------------------------------------------------------------ x1
E------------------------------------------------------------------------------------------------


That’s all just listen to the song for the timing.

Comments