Grinspoon - Black Friday Chords & Tabs

 

Black Friday Chords & Tabs

Grinspoon Chords & Tabs

Version: 1 Type: Tab 0 ratings
1 star 2 stars 3 stars 4 stars 5 stars
comments

Black Friday Tab

   
e|---------------------------------------------------------------------------|
B|---------------------------------------------------------------------------|
G|---------------------------------------------------------------------------|
D|--0----0-----3------3--------0-------0--------0----------------------------|
A|--0----0-----3------3--------0-------0--------0----------------------------|
E|--0----0-----3------3--------0-------0--------0----------------------------|

e|---------------------------------------------------------------------------|
B|---------------------------------------------------------------------------|
G|---------------------------------------------------------------------------|
D|-----------3------3----3----0-------0--------0-----------------------------|
A|-----------3------3----3----0-------0--------0-----------------------------|
E|-----------3------3----3----0-------0--------0-----------------------------|
[ Tab from: http://www.guitartabs.cc/tabs/g/grinspoon/black_friday_tab.html ]
e|---------------------------------------------------------------------------|
B|---------------------------------------------------------------------------|
G|---------------------------------------------------------------------------|
D|-----------3------3----3----0-------0--------0-----------------------------|
A|-----------3------3----3----0-------0--------0-----------------------------|
E|-----------3------3----3----0-------0--------0-----------------------------|

e|---------------------------------------------------------------------------|
B|---------------------------------------------------------------------------|
G|---------------------------------------------------------------------------|
D|-----------3-------3--------4--------4--------4----------------------------|
A|-----------3-------3--------4--------4--------4----------------------------|
E|-----------3-------3--------4--------4--------4----------------------------|


| /  slide up
| \  slide down
| h  hammer-on
| p  pull-off
| ~  vibrato
| +  harmonic
| x  Mute note
===============================================================================
Comments