Grinspoon - 1000 Miles Chords & Tabs

 

1000 Miles Chords & Tabs

Grinspoon Chords & Tabs

Version: 1 Type: Tab 0 ratings
1 star 2 stars 3 stars 4 stars 5 stars
comments

1000 Miles Tab

1000 miles   
Grinspoon
New Detention

Tabbed by Ryan Thyer
 
I wrote this tab, its the 1st song i hav ever tabbed, 
but i am pretty sure its right


dropped D tuning


intro
clean
e|------------------------------------|
b|---(slight bend)--------------------|
g|-0----3p0-3p0-00-5p0-00-6p0-00--3---|    x6
d|------------------------------------|
a|------------------------------------|
D|------------------------------------|



heavy
e|------------------------------------|
b|------------------------------------|
g|------------------------------------|
d|-0----3p0-3p0-00-5p0-00-6p0-00--3---|
a|-0----3p0-3p0-00-5p0-00-6p0-00--3---|
D|-0----3p0-3p0-00-5p0-00-6p0-00--3---|



Verse
e|------------------------------------|
b|------------------------------------|
g|------------------------------------|
d|----0-------------------------------|
a|----0-------------------------------|
D|----0-------------------------------|
  "well, i got drunk and i got stoned...


heavy
e|------------------------------------|
b|------------------------------------|
g|------------------------------------|
d|-0---3p0-3p0-00-5p0-00-6p0-00--3--0-|
a|-0---3p0-3p0-00-5p0-00-6p0-00--3--0-|
D|-0---3p0-3p0-00-5p0-00-6p0-00--3--0-|


e|------------------------------------|
b|------------------------------------|
g|------------------------------------|
d|----0-------------------------------|
a|----0-------------------------------|
D|----0-------------------------------|
   "Shot my family, left my home!"


[ Tab from: http://www.guitartabs.cc/tabs/g/grinspoon/1000_miles_tab.html ]
chorus
e|------------------------------------|
b|------------------------------------|
g|------------------------------------|
d|----6------5--3---------------------|
a|----6------5--3---------------------|
D|----6------5--3---------------------|
  "A Thou -  Sand Miles..."


e|------------------------------------|
b|------------------------------------|
g|------------------------------------|
d|-0---3p0-3p0-00-5p0-00-6p0-00--3--0-|
a|-0---3p0-3p0-00-5p0-00-6p0-00--3--0-|
D|-0---3p0-3p0-00-5p0-00-6p0-00--3--0-|


e|------------------------------------|
b|------------------------------------|
g|------------------------------------|
d|---3------5--6----------------------|
a|---3------5--6----------------------|
D|---3------5--6----------------------|
 " Come get All Your..."


e|------------------------------------|
b|------------------------------------|
g|------------------------------------|
d|-0---3p0-3p0-00-5p0-00-6p0-00--3--0-|
a|-0---3p0-3p0-00-5p0-00-6p0-00--3--0-|
D|-0---3p0-3p0-00-5p0-00-6p0-00--3--0-|


e|------------------------------------|
b|------------------------------------|
g|------------------------------------|
d|----6------5--3---------------------|
a|----6------5--3---------------------|
D|----6------5--3---------------------|
 "Put on     Your Plastic Smiles"


e|------------------------------------|
b|------------------------------------|
g|------------------------------------|
d|-0---3p0-3p0-00-5p0-00-6p0-00--3--0-|
a|-0---3p0-3p0-00-5p0-00-6p0-00--3--0-|
D|-0---3p0-3p0-00-5p0-00-6p0-00--3--0-|


e|------------------------------------|
b|------------------------------------|
g|------------------------------------|
d|---3------5--6----------------------|
a|---3------5--6----------------------|
D|---3------5--6----------------------|
 "A thousand MILES!!"


between one of the chorus's, the intro riff is played, but between the chorus
and the other verses its just the bass.
Comments