Grin Department - Buy One Take One Chords & Tabs

 

Buy One Take One Chords & Tabs

Grin Department Chords & Tabs

Version: 1 Type: Tab 0 ratings
1 star 2 stars 3 stars 4 stars 5 stars
comments

Buy One Take One Tab

   
-------------------------------------------------------------------------------
     Buy 1 take 1 - Grin Department
-------------------------------------------------------------------------------
Tabbed by:Jay Galace
Email: Riff_master12@yahoo.com

Eto na ang solo nitong kantang ito. Nakita ko kaseng wala pang gumawa, kaya kinapa
ko at binanatan ko. 100% akong tama ito . 

Tuning: Standard (E A D G B E)
[ Tab from: http://www.guitartabs.cc/tabs/g/grin_department/buy_one_take_one_tab.html ]
e|---------------------------------------------------------------------------|
B|-15h17-15-15-15-15-15-----------------15h17-15-15-15-15-15-17-19-19--------|
G|----------------------14-14-14-14h16---------------------------------------|
D|---------------------------------------------------------------------------|
A|---------------------------------------------------------------------------|
E|---------------------------------------------------------------------------|

e|---------------------------------------------------------------------------|
B|-17h19p17--------------------------------15h17-15-15-15-15-15-17-19~-------|
G|----------19-19-19-19-19-14-14-14-14h16------------------------------------|
D|---------------------------------------------------------------------------|
A|---------------------------------------------------------------------------|
E|---------------------------------------------------------------------------|
Comments