Grin Department - Bawal Sa Party Chords & Tabs

 

Bawal Sa Party Chords & Tabs

Grin Department Chords & Tabs

Version: 1 Type: Tab 0 ratings
1 star 2 stars 3 stars 4 stars 5 stars
comments

Bawal Sa Party Tab

   
Artist: Grin Department
Track: Bawal Sa Party
Tabbed by: Norman Bulawin
Email: walalangtriplang696@yahoo.com
Props goes to: Rexter Frayna
	       Carlo Magno


This is my second tab I hope you like it
I even included the lyrics
Pls. rate this tab!

h  = hammer on
p  = pull off
~  = let ring
v  = vibrato
/  = slide
*  = natural harmonic 
TR = tremello picking
x  = dead string (left hand mute)
b  = bend
PM = palm mute
S  = slide slowly

Intro

E|-----------------------|
B|-----------------------|
G|--7-7------------------|
D|--7-7--7-7--8-8-8--5-5-|
A|--5-5--7-7--8-8-8--5-5-|
E|-------5-5--6-6-6--3-3-|3x

E|-------------------------------------------------|
B|-------------------------------------------------|
G|--7-7------------------------------------------7-|
D|--7-7--7-7--8-8-8-8-8-8-8-8--55555555-----5----7-|
A|--5-5--7-7--8-8-8-8-8-8-8-8--55555555-----5----5-|
E|-------5-5--6-6-6-6-6-6-6-6--33333333-----3------|

Verse

E|-----------------------|
B|-----------------------|
G|--7-7------------------|
D|--7-7--7-7--8-8-8--5-5-|
A|--5-5--7-7--8-8-8--5-5-|
E|-------5-5--6-6-6--3-3-|3x
    Bawal daw ang pangit sa party

E|-------------------------------------------------|
B|-------------------------------------------------|
G|--7-7------------------------------------------7-|
D|--7-7--7-7--8-8-8-8-8-8-8-8--55555555-----5----7-|
A|--5-5--7-7--8-8-8-8-8-8-8-8--55555555-----5----5-|
E|-------5-5--6-6-6-6-6-6-6-6--33333333-----3------|
    Bawal daw ang may libag sa party 

E|-----------------------|
B|-----------------------|
G|--7-7------------------|
D|--7-7--7-7--8-8-8--5-5-|
A|--5-5--7-7--8-8-8--5-5-|
E|-------5-5--6-6-6--3-3-|3x
    Bawal daw ang mangulit sa party


E|-------------------------------------------------|
B|-------------------------------------------------|
G|--7-7------------------------------------------7-|
D|--7-7--7-7--8-8-8-8-8-8-8-8--55555555-----5----7-|
A|--5-5--7-7--8-8-8-8-8-8-8-8--55555555-----5----5-|
E|-------5-5--6-6-6-6-6-6-6-6--33333333-----3------|
    Bawal daw ang slam dance sa party

Chorus

E|-----------------------|
B|-----------------------|
G|--7-7------------------|
D|--7-7--7-7--8-8-8--5-5-|
A|--5-5--7-7--8-8-8--5-5-|
E|-------5-5--6-6-6--3-3-|3x
    malinis ka ba.........

E|-------------------------------------------------|
B|-------------------------------------------------|
G|--7-7------------------------------------------7-|
D|--7-7--7-7--8-8-8-8-8-8-8-8--55555555-----5----7-|
A|--5-5--7-7--8-8-8-8-8-8-8-8--55555555-----5----5-|
E|-------5-5--6-6-6-6-6-6-6-6--33333333-----3------|
    malinis ka ba...........................talaga

Solo

I'm not so sure about this part but anyway it still fits

E|--12-12-12-12------------------------------------------|
B|--------------12-12-12-12--13-13-13-13--10-10-10h12p10-|
G|-------------------------------------------------------|
D|-------------------------------------------------------|
A|-------------------------------------------------------|
E|-------------------------------------------------------|
[ Tab from: http://www.guitartabs.cc/tabs/g/grin_department/bawal_sa_party_tab.html ]
E|--12-12-12-12------------------------------------------|
B|--------------12-12-12-12--13-13-13-13--10-10-10h12p10-|
G|-------------------------------------------------------|
D|-------------------------------------------------------|
A|-------------------------------------------------------|
E|-------------------------------------------------------|

E|--12-12-12-12------------------------------------------|
B|--------------12-12-12-12--13-13-13-13--10-10-10h12p10-|
G|-------------------------------------------------------|
D|-------------------------------------------------------|
A|-------------------------------------------------------|
E|-------------------------------------------------------|

E|--12-12-12-12------------------------------------12-12-12-12-12---------------|
B|--------------12-12-12-12--13-13-13-13--12-12S10-----------------10h12-12-10~-|
G|------------------------------------------------------------------------------|
D|------------------------------------------------------------------------------|
A|------------------------------------------------------------------------------|
E|------------------------------------------------------------------------------|


2nd Verse

E|-----------------------|
B|-----------------------|
G|--7-7------------------|
D|--7-7--7-7--8-8-8--5-5-|
A|--5-5--7-7--8-8-8--5-5-|
E|-------5-5--6-6-6--3-3-|7x
    Bawal daw ang baduy sa party

E|-------------------------------------------------|
B|-------------------------------------------------|
G|--7-7------------------------------------------7-|
D|--7-7--7-7--8-8-8-8-8-8-8-8--55555555-----5----7-|
A|--5-5--7-7--8-8-8-8-8-8-8-8--55555555-----5----5-|
E|-------5-5--6-6-6-6-6-6-6-6--33333333-----3------|
    Bawal daw ang may libag sa party 

E|-----------------------|
B|-----------------------|
G|--7-7------------------|
D|--7-7--7-7--8-8-8--5-5-|
A|--5-5--7-7--8-8-8--5-5-|
E|-------5-5--6-6-6--3-3-|3x
    Bawal daw ang mangulit sa party


E|-------------------------------------------------|
B|-------------------------------------------------|
G|--7-7------------------------------------------7-|
D|--7-7--7-7--8-8-8-8-8-8-8-8--55555555-----5----7-|
A|--5-5--7-7--8-8-8-8-8-8-8-8--55555555-----5----5-|
E|-------5-5--6-6-6-6-6-6-6-6--33333333-----3------|
    Bawal daw ang umutot sa party


2nd Chorus

E|-----------------------|
B|-----------------------|
G|--7-7------------------|
D|--7-7--7-7--8-8-8--5-5-|
A|--5-5--7-7--8-8-8--5-5-|
E|-------5-5--6-6-6--3-3-|7x
    malinis ka ba.........

E|-------------------------------------------------|
B|-------------------------------------------------|
G|--7-7------------------------------------------7-|
D|--7-7--7-7--8-8-8-8-8-8-8-8--55555555-----5----7-|
A|--5-5--7-7--8-8-8-8-8-8-8-8--55555555-----5----5-|
E|-------5-5--6-6-6-6-6-6-6-6--33333333-----3------|
    malinis ka ba...........................talaga


Outro

E|-----------------------|
B|-----------------------|
G|--7-7------------------|
D|--7-7--7-7--8-8-8--5-5-|
A|--5-5--7-7--8-8-8--5-5-|
E|-------5-5--6-6-6--3-3-|8x
    lalalalalalalalalalala


Order

Intro
Verse
Chorus
Solo
2nd Verse
2nd Chorus
Outro
Comments