Grimskunk - Its In My Head Chords & Tabs

 

Its In My Head Chords & Tabs

Grimskunk Chords & Tabs

Version: 1 Type: Bass Tab 0 ratings
1 star 2 stars 3 stars 4 stars 5 stars
comments

Its In My Head Bass Tab

   
song: It`s in my head
band: Grimskunk
album: Exotic blends
tabbed by: Carlos Pino

8X                      8X 
G-|----------------|-------------------------------------|   tout ca 2x
D-|----------------|-------------------------------------|
A-|---0-2---------|-2-2-2-2-3-2-2-2-2-3-5-3-2-|
E-|-0-------3-3--|-------------------------------------|

G-|----------------------------------
D-|-----------------------------------
A-|---0-2-------------0-2-3-2---|
E-|-0-------3-3---0-------------0-|
[ Tab from: http://www.guitartabs.cc/tabs/g/grimskunk/its_in_my_head_btab.html ]
                    4x
G-|---------------------|----------------------------------------------------------------------------------|
D-|---------------------|----------------------------------------------------------------------------------|
A-|---------------------|----------------------------------------------------------------------------------|
E-|-0-0-0--0-0-0-0-|-5-3-2--5-3-2-3-0-0-0-0-0-0-2-2-2-2-2-2-0-0-0-0-0-0-5-3-2-3-|

   2x 
G-|---------------------------------------------------------------------|
D-|---------------------------------------------------------------------|
A-|----------------------------------------------------------------------
E-|-0-0-0-0-0-0-2-2-2-2-2-2-0-0-0-0-0-0-5-3-2-3-5-3-2-|

   En dessous des paroles jusqu'au petit solo
G-|---------------------------------------------------|
D-|---------------------------------------------------|
A-|---------------------------------------------------|
E-|-0-0-0-0-0-0-2-2-2-2-2-2-0-0-0-0-0-0-2-2-2-2-2-2-2-|
   

 jusqu'à la fin...                  
G-|---------------------------|     
D-|---------------------------|     
A-|---------------------------|    
E-|-0-0-0--3---0-0-0--2-|    


 y manque surement des bout mais cest mieux que rien




Comments