Grima Mike - Put It Down Chords & Tabs

 

Put It Down Chords & Tabs

Grima Mike Chords & Tabs

Version: 1 Type: Bass Tab 0 ratings
1 star 2 stars 3 stars 4 stars 5 stars
comments

Put It Down Bass Tab

Classic bassline.  It can be used almost for any song.

Bass
G|-------------------------------------------|
D|------5----7----------------5----7---------|
A|-5-7----7----7--7777---5-7----7----7--7777-|
E|-------------------------------------------|
[ Tab from: http://www.guitartabs.cc/tabs/g/grima_mike/put_it_down_btab.html ]
G|-------------------------------------------|
D|------3----5----------------3----5---------|
A|-3-5----5----5--5555---3-5----5----5--5555-|
E|-------------------------------------------|

G|-------------------------------------------|
D|------5----7----------------5----7---------|
A|-5-7----7----7--7777---5-7----7----7--7777-|
E|-------------------------------------------|

G|-------------------------------------------|
D|------3----5----------------5----7---------|
A|-3-5----5----5--5555---3-5----5----7~------|
E|-------------------------------------------|
Comments