Grim Skunk - Watchful Elms Chords & Tabs

 

Watchful Elms Chords & Tabs

Grim Skunk Chords & Tabs

Version: 1 Type: Tab 0 ratings
1 star 2 stars 3 stars 4 stars 5 stars
comments

Watchful Elms Tab

   
Watchful Elms, Grim Skunk   (I am not the greatest guitarist, so this may have mistakes)
Tabber: Grim Skunk 
*NOTE* 
I did not transcribe the pick scratches or the slides - pretty easy to figure them out yourself

 Bar 1 (Both Guitars)

E /-------------------------------------------------------------------------------------------|
B| |-----------1------------1---------------1---------------0--------------0-------------0----|
G| |---------------2------------2---------------------------------0-------------0-------------| 
D| |------------------------------------------------------------------------------------------| 
A| |------------------------------------------------------------------------------------------| 
E \-----1--------------1-------------1----------------1----------------1--------------1------ | 

Bar 2 (Both Guitars)

E -----------------------------------------------------------------------------------------------\
B ------------1------------1------------1---------0--------------0------------------------------| |
G ----------------2------------2----------------------2--------------2--------------------------| |
D -----------------------------------3-----2--------------2---------------------------0---------| |
A--------0-------------0------------------------------------------------------2h3---------------| |
E------------------------------------------------------------------------------------------------/

Bar 3 (Guitar 1)(Guitar 2)
Am  Fmaj7(A)       Am       A5      Am
E --------0-----------0-----------0--------0-------0-----||---------------------------------------
B --------1-----------1-----------1--------0-------1-----||----13---------------------------------
G --------2-----------2-----------2--------2-------2-----||-----------14--------------------------
D --------2-----------3-----------2--------2-------2-----||------------------14-------------------
A --------0-----------0-----------0--------0-------0-----||-------------------------12------------
E -------------------------------------------------------||---------------------------------------

Intro:Bar 1 X 2
Bar 2 X 2

Verse 1: Bar 1 X4
 Bar 2 X 4

Verse 2: Bar 1 X2
 Bar 2 X2

Verse 3: Bar 1 X 2
 Bar 3 X 2



Tempo Change:
(Guitar 1)          (Guitar 2)
           F5                 C5        B5F5 C5B5
E -------------------------------------------------------------------------------------------
B -------------------------------------------------------------------------------------------
D ---------------------------5-----------4---------------------------------------------------
G -------3-------------------5-----------4----------------------3----------------------------
A -------3-------------------3-----------2----------------------3--------3-------2-----------
E -------1------------------------------------------------------1----------------------------

(Both Guitars)
A5
E -------------------------------------------------------------------------------------------
B -------------------------------------------------------------------------------------------
D -------------------------------------------------------------------------------------------
G -------7------------------------------7----------------------------------------------------
A -------7------------8-----7-----------7---------8------10----------------------------------
E -------5------------------------------5----------------------------------------------------

           F5                     A5
E -------------------------------------------------------------------------------------------
B -------------------------------------------------------------------------------------------
D -------------------------------------------------------------------------------------------
G -------3----------------------------------7------------------------------------------------
A -------3------3-----2---------------------7-----8----7-------------------------------------
E -------1------------------3---------------5----------------8------X2-----------------------

The swamp starts spitting up......
          F5 G5A5C5 X2        F5           C5      B5     G5   X8     A5    G5
E ------------------------------------|-----------------------------------------|----------------
B ------------------------------------|-----------------------------------------|----------------
D ------------------------------5-----|--------------------5-------4------------|----------------
G --------3-----5--------7------5-----|----------3---------5-------4-----5------|-----7-----5----
A --------3-----5--------7------3-----|----------3---------3-------2-----5------|-----7-----5----
E --------1-----3--------5------------|----------1-----------------------3p0---—|-----5-----3----
[ Tab from: http://www.guitartabs.cc/tabs/g/grim_skunk/watchful_elms_tab.html ]
Guitar 1 plays the chords, Guitar 2 plays the notes:
1stAA#A G
2ndAA#G
E ---------------------------------------------------------------------------------------------
B ---------------------------------------------------------------------------------------------
D ---------------------------------------------------------------------------------------------
G ---------------------------------------------------------------------------------------------
A -----------------------------------------------------------------3---------------------------
E –pm-5----3----5---3----5---3----5-----3-----5----3----5----6-----------6------5------3-------X2
Guitar 1 plays the chords, Guitar 2 plays the notes:
 DD#CA#
E -----------------------------------------------------------------------------------------------
B -----------------------------------------------------------------------------------------------
D -----------------------------------------------------------------------------------------------
G -----------------------------------------------------------------------------------------------
A ------------------------8-------------------------------------8---------------------------------
E –pm----10---8---10---11----11---10---8----10----8----10—11-------11----10-----8----------------

Guitar 1 plays the chords, Guitar 2 plays the notes:
1stAA# G
2ndAA#AG
E ------------------------------------------------------------------------------------------------
B ------------------------------------------------------------------------------------------------
D ------------------------------------------------------------------------------------------------
G ------------------------------------------------------------------------------------------------
A -----------------------------------------------------------------------3------------------------
E –pm-5----3-----5-----3-----5-----3----5-----3-----5----3----5----6-----------6----5------3------X2

Guitars 1 and 2:
A5D#     C5        D5      A#5
E -----------------------------------------|---------------------------------------------------
B -----------------------------------------|---------------------------------------------------
D ---------------------------------8-------|-----5--------7------------------------------------
G --------7------------------------8-------|-----5--------7--------8---------------------------
A --------7------------------------6-------|-----3--------5--------8---------------------------
E --------5-------0--3--5--6----------------X3---------------------6---------------------------

Guitar 1 hits chord once, Guitar 2 chunks with a palm mute:
AD#AD#

AD#X2

Guitar 1 plays chords, Guitar 2 plays notes:
G      D#       G
E -------------------------------------------------------------------------------------
B -------------------------------------------------------------------------------------
D ---------------------------------------------------------------------------------5---
G -------------------------------------------------3-----5----/5—7----8-—7----8--------
A ------------------------------3-------3-----6----------------------------------------
E ----3----5-----6-----5----6------6---------------------------------------------------





Take it easy..........
        D#    G        D#      G   D#
E -------------------------------|---------------------------------------------------------------
B -------------------6------8----|---------------------------------------------------------------
D --------5----8-----------------|----5------7----8------5------5-----7-----8------5-------------
G —8-----------------------------|---------------------------------------------------------------
A -------------------------------|---------------------------------------------------------------
E -------------------------------|---------------------------------------------------------------

G   A#D#A#GD#G          D# 
E ------------------------------------------------------------------------------------------
B ------------------------------------------------------------------------------------------
D -----------------------8-----------------------------8-------------------------8----------
G -----5----5------------8---------------5-------------8-----------------5-------8----------
A -----5----5------------6---------------5-------------6-----------------5-------6----------
E -----3----3------6------------6--------3-------------------------------3------------------

Guitar 1 (Acoustic) Strums, Guitar 2 hits chords once:

GD#A#C     X2

Both Guitars:
     G           D#   A#        C                    X8

Guitar 1 and 2 Chords, Guitar 2 notes after the chord
F5       D#5F5       D#5A# 5  
E -----------------6--------------------------------------------------------------------------
B ---------------------6----------------------------------------------------------------------
D --------------------------7-----------------------------------------------------------------
G -----------------------------8--------------------------------------------------------------
A --------------------------------------------------------------------------------------------
E --------------------------------------------------------------------------------------------

Both Guitars:
                                 French lyrics:
F5       D#5F5          D#5   A#5      F5     X4
E -----------------6-------------------------------|-------------------------------------------
B ---------------------6---------------------------|-------------------------------------------
D --------------------------7----------------------|-------------------------------------------
G -----------------------------8-------------------|-------------------------------------------
A -------------------------------------------------|-------------------------------------------
E -------------------------------------------------|-------------------------------------------
Tempo Change, Both Guitars:

G FD#A#   X2

Both Guitars:..

G D#A#C     X2

Both Guitars....
F        D#    F   G CGC

Quick chord changes:
GCGC    G    C     G 

Fin.

Any questions, corrections, or comments to Coreyeecasey@lycos.com.
Enjoy.
Comments