Grim Skunk - Watchful Elms Chords & Tabs

 

Watchful Elms Chords & Tabs

Grim Skunk Chords & Tabs

Version: 1 Type: Bass Tab 0 ratings
1 star 2 stars 3 stars 4 stars 5 stars
comments

Watchful Elms Bass Tab

-----------------------------------------
Watchful Elms / Grimskunk
-----------------------------------------

12x                                                2x         8x
G-------------------|-------------------------------|-------|----------------------------|----------------------------------------|
D-------------------|----------------------3---2----|-------|---------------------3--2---|----------------------------------------|
A----------------8--|---0------0--3--0--------------|-------|--0-------0--3--0-----------|----------------------------------------|
E-------------------|-------------------------------|----1--|----------------------------|----1--1--/--8--8-------1--1--/--8--8---|
[ Tab from: http://www.guitartabs.cc/tabs/g/grim_skunk/watchful_elms_btab.html ]
 
G----------------------------------------------------------------------|------------------------------------|
D----------------------------------------------------------------------|-------------3--2--2-3-2-3-2-3-2----|
A--------3--2---------------------3-2----------3-2-3-2-3-2-3-2-3-2-----|---0--0--0--------------------------|
E---1-----------1-1-1-1-1-1-1---------1-1-1----------------------------|------------------------------------|
                                                                                                                                               
      4x                              8x                              4x
G---------------------------------|---------------------------------|---------|------------------------------------|
D---------------------------------|---------------------------------|---------|------------------------------------|
A---------------------------------|-------3--2--------------3---2---|---------|-------------------------1-3-1-0-1--|
E--1--1---3--3---5---5---8---8--|-1------------3--0--1--------------|--5--3---|-5-3-5-3-5-3-5-3-5-3----------------|
                                                                                                                                                    
     6x                                                                               4x
G-----------------------------------|-----------------------------------------------|----------|-----------------|
D------------------------1-3-1-0-1--|-----------------------------------------------|----------|-----------------|
A-5-3-5-3-5-3-5-3-5-3---------------|---------------6----------------6---3--5-------|-------6--|--------------6--|
E-----------------------------------|--5--3--5--6------5--3--5--6-------------6-----|---5------|--3--3--5--6-----|
                                                                        
                       8x                                                    2x
G-----------------|-----------------------------------------------------|-----------------------------------|
D-----------------|----------------------5--8----------------------2--5-|-----------------------------------|
A-------6------3--|---------2--5--6--6---------------5--8---3--3--------|----8---6-----8---6--------8--6----|
E---3------6------|--3--3----------------------6--6---------------------|----------------------6666---------|
                                                                                                                                         
          3x                    2x                          2x                2x 
G-------------------------|--------------------------|------------------|---------------------------------------------------|
D-------------------------|--------------------------|------------------|---------------------5--8--------------------2---5-|
A---6-6-6-----------------|---6-6-6----------8-8-8---|--------6---1---3-|---------2--5--6--6--------------5--8--3--3--------|
E----------6-6-6--1--1----|----------6-6-6-----------|---3--------------|--3--3--------------------6--6---------------------|

G------------------------------------------|
D------------------------------------------|
A----3-----3-----3-------------------------|
E--3----3-----3-----3----------------------|


Comments