Grim Skunk - Oh My God Chords & Tabs

 

Oh My God Chords & Tabs

Grim Skunk Chords & Tabs

Version: 1 Type: Tab 0 ratings
1 star 2 stars 3 stars 4 stars 5 stars
comments

Oh My God Tab

Band: Grim Skunk
Song: Oh my God
Album: Fieldtrip
Tabbed By: FaTSkUnK

Intro

e|--7--0--7--6--0--6--5--0--5-----5-|
B|-----------------------------8----|
G|----------------------------------|
D|----------------------------------|
A|----------------------------------|
E|----------------------------------|


X2
  pm.     ...       ...           ...     ...       ...
e|-----------------------8-7----------------------------------|
B|---------------------------7-8------------------------------|
G|-------------------------------------------------------5--4-|
D|-3--3-3--3--3-3-3--3-------------3--3-3--3--3-3-3--3---5--4-|
A|-3--3-3--3--3-3-3--3-------------3--3-3--3--3-3-3--3---3--2-|
E|-1--1-1--1--1-1-1--1-------------1--1-1--1--1-1-1--1--------|


- Verse (no guitar)
- Intro

[ Tab from: http://www.guitartabs.cc/tabs/g/grim_skunk/oh_my_god_tab.html ]
   X4
e|---------------------------------------------|
B|---------------------------------------------|
G|-9---4-4--5-5--4--8--4-5--2--2--2--3--2--4-5-|
D|-9---4-4--5-5--4--8--4-5--2--2--2--3--2--4-5-|
A|-7---2-2--3-3--2--6--2-3--0--0--0--1--0--2-3-|
E|---------------------------------------------|
 |                                             |
 |                                             |
e|-12--7-7--8-8--7-11--7-8--5--5--5--6--5--7-8-|
B|---------------------------------------------|
G|---------------------------------------------|
D|---------------------------------------------|
A|---------------------------------------------|
E|---------------------------------------------|


Intro(2)

e|--7--0--7--6--0--6--5--0--5-----5-|
B|-----------------------------8----|
G|----------------------------------|
D|----------------------------------|
A|----------------------------------|
E|----------------------------------|
 |                                  |
e|----------------------------------|
B|----------------------------------|
G|-----------3--------2-------------|
D|-2---------3--------2--------5----|
A|-2---------1--------0--------5----|
E|-0---------------------------3----|


Chorus

e|--------------------------------------------|
B|--------------------------------------------|
G|--------3-3-3--2-2-2------------------------|
D|-2-2-2--3-3-3--2-2-2--5-5-5--3-5-3-5-3-5--2-|
A|-2-2-2--1-1-1--0-0-0--5-5-5--3-5-3-5-3-5--2-|
E|-0-0-0----------------3-3-3--1-3-1-3-1-3--0-|


- Verse (no guitar)

   X3
e|---------|--------------------------------------------------------|
B|---------|--------------------------------------------------------|
G|-9--4--5-|-------------3-3-3-------6-6-6--------8-8-8-8-8-8-2-2-2-|
D|-9--4--5-|-2-2-2-2-2-2-3-3-3-5-5-5-6-6-6--2-2-2-8-8-8-8-8-8-2-2-2-|
A|-7--2--3-|-2-2-2-2-2-2-1-1-1-5-5-5-4-4-4--2-2-2-6-6-6-6-6-6-0-0-0-|
E|---------|-0-0-0-0-0-0-------3-3-3--------0-0-0-------------------|

   X4
e|---------------------|
B|---------------------|
G|-9-9-9--8-8-8--2-----|
D|-9-9-9--8-8-8--2-----|
A|-7-7-7--6-6-6--0-----|
E|---------------------|


- Intro
- Chorus
Comments