Grim Skunk - Misfit Chords & Tabs

 

Misfit Chords & Tabs

Grim Skunk Chords & Tabs

Version: 1 Type: Tab 0 ratings
1 star 2 stars 3 stars 4 stars 5 stars
comments

Misfit Tab

   
Band: Grim Skunk
Song: Misfit
Album: Ep 2000
Tabbed By: FaTSkUnK

Intro   

e|--------------------------------------------|
B|--------------------------------------------|
G|------7-7-----------------7-7-------7-7-7---|
D|--9-9-7-7-7-7-10-10---9-9-7-7---7-7-7-7-7-9-|
A|--9-9-5-5-7-7-10-10---9-9-5-5---7-7-5-5-5-9-|
E|--7-7-----5-5-8--8----7-7-------5-5-------7-|

Post-Intro/Outro

  X3
e|------|-------------|
B|------|-------------|
G|----5-|-------------|
D|-10-7-|-9-9-9-9-9-9-|
A|-10-7-|-9-9-9-9-9-9-|
E|-8----|-7-7-7-7-7-7-|
     
Verse
  X2
   pm.................         pm..........................................
e|---------------------------|---------------------------------------------|
B|---------------------------|---------------------------------------------|
G|-------------------------7-|-------------7-7-7-7-7-7---------------------|
D|-9-9-9-9-9-9-9-9-9-9--10-7-|-9-9-9-9-9-9-7-7-7-7-7-7-7-7-7-7-7-7-7-7-7-7-|
A|-9-9-9-9-9-9-9-9-9-9--10-5-|-9-9-9-9-9-9-5-5-5-5-5-5-7-7-7-7-7-7-7-7-7-7-|
E|-7-7-7-7-7-7-7-7-7-7--8----|-7-7-7-7-7-7-------------5-5-5-5-5-5-5-5-5-5-|

- Verse X3
[ Tab from: http://www.guitartabs.cc/tabs/g/grim_skunk/misfit_tab.html ]
e|--------------------------------------------------------------------|
B|-----------------------12----------------10-10-10B--12---12---12B---|
G|-------9-9-------9-11B----11---11-11-11B----------------------------|
D|--9-12------9-12----------------------------------------------------|
A|--------------------------------------------------------------------|
E|--------------------------------------------------------------------|

Chorus

e|---------------------------------------------------------------------------
B|---------------------------------------------------------------------------
G|-7-7-7-7-7-7-7-7-7-7-7-7-7-------------------------9-9-9-9-9-9-9-9-9-9-9-9-
D|-7-7-7-7-7-7-7-7-7-7-7-7-7-9-9-9-9-9-9-9-9-9-9-9-9-9-9-9-9-9-9-9-9-9-9-9-9-
A|-5-5-5-5-5-5-5-5-5-5-5-5-5-9-9-9-9-9-9-9-9-9-9-9-9-7-7-7-7-7-7-7-7-7-7-7-7-
E|---------------------------7-7-7-7-7-7-7-7-7-7-7-7-------------------------

  -------------------------------------|
  -------------------------------------|
  -------------------------------------|  X2
  -10-10-10-10-10-10-10-10-10-10-10-10-|
  -10-10-10-10-10-10-10-10-10-10-10-10-|
  -8--8--8--8--8--8--8--8--8--8--8--8--|

- Verse X2
- Chorus

e|-----------------------|
B|-----------------------|
G|-7-7-7-7-7-----------9-|
D|-7-7-7-7-7-9-9-9-9-9-9-| X8
A|-5-5-5-5-5-9-9-9-9-9-7-|
E|-----------7-7-7-7-7---|
  
   X2
e|--------------------------------------------------|---|
B|--------------------------------------------------|---|
G|-7-7-7-7-7----------------------------------------|---|
D|-7-7-7-7-7-10-10-10-10-10-9-9-9-9-9-9-9-9-9-9-9-9-|-9-|
A|-5-5-5-5-5-10-10-10-10-10-9-9-9-9-9-9-9-9-9-9-9-9-|-9-|
E|-----------8--8--8--8--8--7-7-7-7-7-7-7-7-7-7-7-7-|-7-|

- Outro
Comments