Grim Skunk - Lord Ogre Chords & Tabs

 

Lord Ogre Chords & Tabs

Grim Skunk Chords & Tabs

Version: 1 Type: Bass Tab 0 ratings
1 star 2 stars 3 stars 4 stars 5 stars
comments

Lord Ogre Bass Tab

song: Lord Ogre
band: Grimskunk
album: Meltdown
tabbed by: Carlos Pino

  Intro                            
--------------------------------------------------------------------------------------
 -------------------------------------------------------------------------------------
 -------------------------------------------------------------------------------------
 -5--3--1---0-----5--7--3--0--0--0--0--0--0--0--0--0--5--3--1---0--0--

                                
                           2 X                                              2 X
  -------------------------------------------------------------------------------------
 --------------------------------------------------------------------------------------
 --------------------------------------------------------------------------------------
 --0--0--0--0--0--5--7--3---5-5-5-5-5-5-5-5--8--8--8--8--8--8--8--8-
[ Tab from: http://www.guitartabs.cc/tabs/g/grim_skunk/lord_ogre_btab.html ]
 ----------------------------------------------------------------------
 ----------------------------------------------------------------------
 ----------5--5-------------------------------------------------------
 --7--7-------------5---5--5--5--5--5--5--5--5--5--6--6--3--

--------------------------- 
----------------------------
-----------------------------
--0--0--0--2--3--3--3----

---------------------------------------------------------------------------------------------
 ---------------------------------------------------------------------------------------------
 ---------------------------------------------------------------------------------------------
 --2--5--5--5--2--5--5--5--5--0--0--0--2--3--3--3--0--2--2--2--0--2--2--2--2--

 ---------------------------------------------------------------------------------------------------
 ----------------------------------------------------------------------------------------------------
 -7--7--7--7-------------------------------------------3--5--7--5--3--------------------0---2-
 ----------------5--5--5--5--3--3--3--3--2--2--2--------------------0--0--0-----0---------


Comments