Grim Skunk - Leash On Me Chords & Tabs

 

Leash On Me Chords & Tabs

Grim Skunk Chords & Tabs

Version: 1 Type: Tab 0 ratings
1 star 2 stars 3 stars 4 stars 5 stars
comments

Leash On Me Tab

e|---------------------|-------------------------|-------------------|
B|---------------------|-------------------------|-------------------|
G|---------------------|-------------------------|-------------------|
D|-2-2-x-2-x-x-2-2-x-5-|--2-2-x-2-x-x-2-5-5--3-2-|-2-2-5-x-3-2-------|
A|-2-2-x-2-x-x-2-2-x-5-|--2-2-x-2-x-x-2-5-5--3-2-|-2-2-5-x-3-2-------|
E|-0-0-x-0-x-x-0-0-x-3-|--0-0-x-0-x-x-0-3-3--1-0-|-0-0-3-x-1-0-------|

[01:06]

e|---------------------|-------------------------|
B|---------------------|-------------------------|
G|---------------------|-------------------------|
D|-2-2-x-2-x-x-2-2-x-5-|--2-2-x-2-x-x-2-5-5--3-2-|
A|-2-2-x-2-x-x-2-2-x-5-|--2-2-x-2-x-x-2-5-5--3-2-|
E|-0-0-x-0-x-x-0-0-x-3-|--0-0-x-0-x-x-0-3-3--1-0-|

e|---------------------|-------------------------------------------------------|
B|---------------------|-------------------------------------------------------|
G|---------------------|-------------------------------------------------------|
D|-2-2-x-2-x-x-2-2-x-5-|--2-2-x-2-x-x-2-5-5--3--5-5-5-5-5-5-5-5-7-7--8-8--2----|
A|-2-2-x-2-x-x-2-2-x-5-|--2-2-x-2-x-x-2-5-5--3--5-5-5-5-5-5-5-5-7-7--8-8--2----|
E|-0-0-x-0-x-x-0-0-x-3-|--0-0-x-0-x-x-0-3-3--1--3-3-3-3-3-3-3-3-5-5--6-6--0----|

[01:44]

e|-------------------------------------------------------------|
B|-------------------------------------------------------------|
G|-------------------------------------------------------------|
D|-------------------------------------------------------------|
A|-------------------------------------------------------------|
E|-0-2---2-0---------------------------------------------------|

[01:54]

e|---------------------|-------------------------|
B|---------------------|-------------------------|
G|---------------------|-------------------------|
D|-2-2-x-2-x-x-2-2-x-5-|--2-2-x-2-x-x-2-5-5--3-2-|
A|-2-2-x-2-x-x-2-2-x-5-|--2-2-x-2-x-x-2-5-5--3-2-|
E|-0-0-x-0-x-x-0-0-x-3-|--0-0-x-0-x-x-0-3-3--1-0-|
[ Tab from: http://www.guitartabs.cc/tabs/g/grim_skunk/leash_on_me_tab.html ]
e|---------------------|-------------------------------------------------|
B|---------------------|-------------------------------------------------|
G|---------------------|-------------------------------------------------|
D|-2-2-x-2-x-x-2-2-x-5-|--2-2-x-2-x-x-2-5-5--3--5-5-5-5-5-5-5-5-7-7--8-8-|
A|-2-2-x-2-x-x-2-2-x-5-|--2-2-x-2-x-x-2-5-5--3--5-5-5-5-5-5-5-5-7-7--8-8-|
E|-0-0-x-0-x-x-0-0-x-3-|--0-0-x-0-x-x-0-3-3--1--3-3-3-3-3-3-3-3-5-5--6-6-|

e|---------------------|-------------------------------------------------|
B|---------------------|-------------------------------------------------|
G|---------------------|-------------------------------------------------|
D|-2-2-x-2-x-x-2-2-x-5-|--2-2-x-2-x-x-2-5-5--3--5-5-5-5-5-5-5-5-7-7--8-8-|
A|-2-2-x-2-x-x-2-2-x-5-|--2-2-x-2-x-x-2-5-5--3--5-5-5-5-5-5-5-5-7-7--8-8-|
E|-0-0-x-0-x-x-0-0-x-3-|--0-0-x-0-x-x-0-3-3--1--3-3-3-3-3-3-3-3-5-5--6-6-|

[02:24]

e|--------------------------------|-------|
B|--------------------------------|-------|
G|--------------------------------|-------|
D|-2-2-2-2---2-0----2-2-2-2---2-3-|--2----|
A|-2-2-2-2---2-0----2-2-2-2---2-3-|--2----|
E|-0-0-0-0---0------0-0-0-0---0-1-|--0----|

[03:07]

e|---------------------|-------------------------|
B|---------------------|-------------------------|
G|---------------------|-------------------------|
D|-2-2-x-2-x-x-2-2-x-5-|--2-2-x-2-x-x-2-5-5--3-2-|
A|-2-2-x-2-x-x-2-2-x-5-|--2-2-x-2-x-x-2-5-5--3-2-|
E|-0-0-x-0-x-x-0-0-x-3-|--0-0-x-0-x-x-0-3-3--1-0-|

e|---------------------|-------------------------------------------------|
B|---------------------|-------------------------------------------------|
G|---------------------|-------------------------------------------------|
D|-2-2-x-2-x-x-2-2-x-5-|--2-2-x-2-x-x-2-5-5--3--5-5-5-5-5-5-5-5-7-7--8-8-|
A|-2-2-x-2-x-x-2-2-x-5-|--2-2-x-2-x-x-2-5-5--3--5-5-5-5-5-5-5-5-7-7--8-8-|
E|-0-0-x-0-x-x-0-0-x-3-|--0-0-x-0-x-x-0-3-3--1--3-3-3-3-3-3-3-3-5-5--6-6-|

e|--------------------------------|--------------------------|
B|--------------------------------|--------------------------|
G|--------------------------------|--------------------------|
D|-2-2-2-2---2-2----2-2-2-2---2-5-|-5-5-5-5-5-5-5-5-7-7--8-8-|
A|-2-2-2-2---2-2----2-2-2-2---2-5-|-5-5-5-5-5-5-5-5-7-7--8-8-|
E|-0-0-0-0---0-0----0-0-0-0---0-3-|-3-3-3-3-3-3-3-3-5-5--6-6-|

e|--------------------------------|----|
B|--------------------------------|----|
G|--------------------------------|----|
D|-2-2-2-2---2-0----2-2-2-2---2-3-|--2-|
A|-2-2-2-2---2-0----2-2-2-2---2-3-|--2-|
E|-0-0-0-0---0------0-0-0-0---0-1-|--0-|
Comments