Grim Skunk - Jsuis Comatose Chords & Tabs

 

Jsuis Comatose Chords & Tabs

Grim Skunk Chords & Tabs

Version: 1 Type: Bass Tab 0 ratings
1 star 2 stars 3 stars 4 stars 5 stars
comments

Jsuis Comatose Bass Tab

   
Title:Jsuis comatose
Artist:Grim Skunk
Album: Seventh Wave
inst: Bass
Tabbed by: NoFace

Intro: Just do one shot but strong whit the intro 00:01

G/-------------
D/-------------   X1
A/-------------
E/-00000-------

Verse:00:13(Jsuis comatose dnas mon divan)--- The 3-2,but the 7-4 play it slow
like: 7-4 32 1111 switch very fast, and the 1-1-1-1-1- play it fast too

G/------------------------
D/------------------------
A/------------------------  X8
E/-7-4-3-2-1-1-1-1-1-1-1-1

Chorus:00:39(Mon Coeur explose..)---- play all notes fast too except the 8 just
do it each a half time of the others.

G----------------------------
D----------------------------
A----------------------------
E-1-1-1-1-3-3-3-3-7-7-7-7-8-8

Verse:(ca m'enkylose..)---- you start at 00:59 :just the same thing
G/------------------------
D/------------------------
A/------------------------  X8
E/-7-4-3-2-1-1-1-1-1-1-1-1

Chorus: 01:24 ( Mon coeur explose)---

G----------------------------
D----------------------------
A----------------------------
E-1-1-1-1-3-3-3-3-7-7-7-7-8-8


After Chorus: 01:37 (Fine.. I Feel Fine..)
play it fats too.

G/--------------------------------
D/--------------------------------
A/--------------------------------  X2
E/-7-7-7-7-4-4-4-4-1-1-1-1-1-1-1-1

G/--------------------------------
D/--------------------------------
A/--------------------------------  X1
E/-4-4-4-4-7-7-7-7-3-3-3-3-1-1-1-1

G/--------------------------------
D/--------------------------------
A/--------------------------------  X1
E/-7-7-7-7-4-4-4-4-1-1-1-1-1-1-1-1

G/------------------------------
D/------------------------------
A/------------------------------    X2
E/-4-4-4-4-7-7-7-7-9-9-9-9-10-10


G/--------------------------------
D/--------------------------------
A/--------------------------------  X1
E/-7-7-7-7-4-4-4-4-7-7-7-7-1-1-1-1
[ Tab from: http://www.guitartabs.cc/tabs/g/grim_skunk/jsuis_comatose_btab.html ]
G/----------------------------------------
D/----------------------------------------
A/----------------------------------------  X1
E/-4-4-4-4-7-7-7-7-3-3-3-3-1-1-1-1-1-1-1-1

Bridge: 02:16 (Can you touch me)
G/------------
D/------------   X5
A/------------
E/7---4-3-1--

Second bridge: 02:29(Ça fait pu mal quand t'es comatose)

G/------------------------
D/------------------------
A/------------------------  X4
E/-7-4-3-2-1-1-1-1-1-1-1-1

After the bridges: 02:42

G/--------------------------------
D/--------------------------------
A/--------------------------------  X2
E/-7-7-7-7-4-4-4-4-1-1-1-1-1-1-1-1

G/--------------------------------
D/--------------------------------
A/--------------------------------  X1
E/-4-4-4-4-7-7-7-7-3-3-3-3-1-1-1-1

G/--------------------------------
D/--------------------------------
A/--------------------------------  X1
E/-7-7-7-7-4-4-4-4-1-1-1-1-1-1-1-1

G/------------------------------
D/------------------------------
A/------------------------------    X2
E/-4-4-4-4-7-7-7-7-9-9-9-9-10-10


03:01 :(Something shattered and I lost all the feeling)----This part is fun and
special... IT NEVER STOP! if you are good it should be fun but little hard.

G/---------------------------------------------------------
D/---------------------------------------------------------
A/---------------------------------------------------------
E/-7-7-7-7-4-4-4-4-3-3-3-3-1-1-1-1-4-4-4-4-7-7-7-7-9-9-9-9-

G/-----------------------------------------------------------------
D/-----------------------------------------------------------------
A/-----------------------------------------------------------------
E/-4-4-4-4-3-3-3-3-1-1-1-1-4-4-4-4-1-1-1-1-7-7-7-7-4-4-4-4-1-1-1-1-


So This is it... But if you dont like this to change in only one string pick up
the real A or G i dont know and translate it on the A/- string


For comments or chatting contact me: linkin_crawling@homtail.com

PS: i talking french too
so comment please because its my first tabs


Thanks     sign up: NoFace
Comments