Grim Skunk - In Eight Years Chords & Tabs

 

In Eight Years Chords & Tabs

Grim Skunk Chords & Tabs

Version: 2 Type: Tab 0 ratings
1 star 2 stars 3 stars 4 stars 5 stars
comments

In Eight Years Tab

   
#----------------------------------PLEASE NOTE---------------------------------#
#This file is the author's own work and represents their interpretation of the #
#song. You may only use this file for private study, scholarship, or research. #
#------------------------------------------------------------------------------##
From: Bruno Lamoureux 
Subject: TAB: In eight years  by  Grim Skunk
----------------------------------------------------------------------

|-0-----0-0-0-0-0-0-0-0----0-0-0-0-0-0--------0-0-0-0-0-0----/12-/12-/12-|
|-0-----0-3-0-5-5-5-3-0-3--5-5-5-5-3-0-3-3-3--5-5-5-5-3-0-3--/12-/12-/12-|
|-----------------------3-0------------3-3-3-0------------3-0------------|
|-----------------------3-0------------3-3-3-0------------3-0------------|
|------------------------------------------------------------------------|
|------------------------------------------------------------------------|


play 2 time

rhytm A
|------------------------------------------------------|-----------------|
|------------------------------------------------------|-----------------|
|------------------------------------------------------|-----------------|
|----------------------------------------------8-8-7-5-|-----------------|
|----------------------------------------------8-8-7-5-|-----------------|
|-0-0-3-0-5-0-5-6-6-5-3-5-3-3-5-0-0-3-0-5-0-5--6-6-5-3-|-----------------|

play rhytm A with palm mutting 2 times

|-----------------------------------------|------------------------------|
|-----------------------------------------|------------------------------|
|-----------------------------------------|------------------------------|
|-----------------------------------------|------------------------------|
|-----------------------------------------|------------------------------|
|-----------------------------------------|------------------------------|


                             4 times
you gonna lose your mind...
                             p.m........
|----------------------------|-------------|-----------------------------|
|----------------------------|-------------|-----------------------------|
|----3-----3-----3-----3-----|-------------|-----------------------------|
|-2--3--2--3--2--3--2--3-----|-2--3--2--8--|-----------------------------|
|-2--1--2--1--2--1--2--1-----|-2--3--2--8--|-----------------------------|
|-0-----0-----0-----0--------|-0--1--0--6--|-----------------------------|

                                                           rhytm A
                                                           1 time
|----------------------------------------------------------|------------|
|----------------------------------------------------------|------------|
|----------------------------------------------------------|------------|
|----------------------------------------------------------|------------|
|----------------------------------------------------------|------------|
|-0-3-0-5-0-5-6-6-5-3-5-3-3-5-0--3-0-5-0-5-6-6-5-3-5-3-3-5-|------------|

rhytm B
[ Tab from: http://www.guitartabs.cc/tabs/g/grim_skunk/in_eight_years_tab_ver_2.html ]
|------------------------------------------|-----------------------------|
|------------------------------------------|-----------------------------|
|------------------------------------------|-----------------------------|
|-5--7--2---5--7--8--7-5--2--5--2--5--7--8-|-----------------------------|
|-5--7--2---5--7--8--7-5--2--5--2--5--7--8-|-----------------------------|
|-3--5--0---3--5--6--5-3--0--3--0--3--5--6-|-----------------------------|


rhytm C                                           4 times
2 times                                           rhytm D     rhytm B
p.m............................................(see at the end)
|-------------------------------------------------|--------------|----|--|
|-------------------------------------------------|--------------|----|--|
|-------------------------------------------------|--------------|----|--|
|-----2-0-3-3-2-0-2-0-2h3-----2-0-8-8-7-5-8-7-5-7-|--------------|----|--|
|-2-2-2-0-3-3-2-0-2-0-2h3-2-2-2-0-8-8-7-5-8-7-5-7-|--------------|----|--|
|-0-0---------------------0-0---------------------|--------------|----|--|

                                              rhytm B

|---------------------------------------------|--------------------|-----|
|---------------------------------------------|--------------------|-----|
|---3---3-7---3---3-7---3-7---3-7---3-7---3-7-|--------------------|-----|
|-2-3-2-3-7-2-3-2-3-7-2-3-7-2-3-7-2-3-7-2-3-7-|--------------------|-----|
|-2-1-2-1-5-2-1-2-1-5-2-1-5-2-1-5-2-1-5-2-1-5-|--------------------|-----|
|-0---0-----0---0-----0-----0-----0-----0-----|--------------------|-----|


rythm C|rhytm D|
2 times|4 times|

|--------|----|-----------------------------------------|----------------|
|--------|----|-----------------------------------------|----------------|
|--------|----|--5-5-4-5---3-3-2-3----5-5-4-5---3-3-2-3-|----------------|
|--------|----|2-5-5-4-5-2-3-3-2-3-2--5-5-4-5-2-3-3-2-3-|----------------|
|--------|----|2-3-3-2-3-2-1-1-0-1-2--3-3-2-3-2-1-1-0-1-|----------------|
|--------|----|0---------0---------0----------0---------|----------------|

satan make me do it

|---------------------|-------------------|------------------------------|
|---------------------|-------------------|------------------------------|
|---------------------|----------3------5-|------------------------------|
|---------------------|-2-3-2--3-3--2-3-5-|------------------------------|
|---------------------|-2-3-2--3-1--2-3-3-|------------------------------|
|---------------------|-0-1-0--1----0-1---|------------------------------|


I don't have the time to find all the soloing part at the end, if you
find it please e-mail me...

|------------------------------------------------------------------------|
|------------------------------------------------------------------------|
|------------------------------------------------------------------------|
|------------------------------------------------------------------------|
|------------------------------------------------------------------------|
|------------------------------------------------------------------------|

the rythm D is :
p.m...........................................
|-----------------------------------------------|------------------------|
|-----------------------------------------------|------------------------|
|-----------------------------------------------|------------------------|
|-----2--2-2--2--2h3------2--2-8--8-7-5-8-7-5-7-|------------------------|
|-2-2-2--2-2--2--2h3--2-2-2--2-8--8-7-5-8-7-5-7-|------------------------|
|-0-0-----------------0-0-----------------------|------------------------|


Ce fichier a =82t=82 cr=82e par Tab 1.1
Comments