Grim Skunk - Bugs In Billy Bobs Bed Chords & Tabs

 

Bugs In Billy Bobs Bed Chords & Tabs

Grim Skunk Chords & Tabs

Version: 1 Type: Bass Tab 0 ratings
1 star 2 stars 3 stars 4 stars 5 stars
comments

Bugs In Billy Bobs Bed Bass Tab

----------------------------------------------------------------------------
                    BUGS IN BILLY BOB'S BED - GRIM SKUNK
----------------------------------------------------------------------------

   4x         4x      4x                                           4x
G-|------------------------------------------------|-----------------------------------|
D-|-------------------------------------------------|-----------------------------------|
A-|-------------------------------------------------|-5--5--8--10--11--10--8--|
E-|-3-4-5-|-5-5-|-5--5--8--10--11--10--8---|-------------------------|
[ Tab from: http://www.guitartabs.cc/tabs/g/grim_skunk/bugs_in_billy_bobs_bed_btab.html ]
   4x                                           2x              4x   (Verse)
G-|----------------------------------------------------------------------------|
D-|----------------------------------------------|---------------------------------
A-|----------------------------------------------|------------------------------------
E-|-5--5--8--10--11--10--8---|-3-4-5----|-0-0-5-5-0-0-3-3-0-0-5-5-0-1-2-3-|

   2x (Verse)                         2x  (Verse) 
G-|---------------------------------------------------|----------------------------------|
D-|--------------------------------------------------|---------------------------------------------|
A-|-0-0-5-5-0-0-3-3-0-0--5-5----------------|----------------------------------------------|
E-|----------------------------------3-2-1-0-------|-0-0-5-5-0-0-3-3-0-0-5-5-0-1-2-3-|

         6x                        4x            6x      Don't you know ...     
G-|----- |--------------------------------------------------------------------------------------|
D-|------------------------------------------------------------------------------------------------|
A-|------------------------------------------------------------------------------3-4-5-----------0-|
E-|-5-5-|-5--5--8--10--11--10--8---|-11-10-8----|-3-4-5-|-3-4-5----------3-4-5---|





Comments