Grieg - In The Hall Of The Mountain King Chords & Tabs

 

In The Hall Of The Mountain King Chords & Tabs

Grieg Chords & Tabs

Version: 4 Type: Tab 0 ratings
1 star 2 stars 3 stars 4 stars 5 stars
comments

In The Hall Of The Mountain King Tab

   
----------------------------------------------------------------------------
	         IN THE HALL OF THE MOUNTAIN KING - GRIEG
----------------------------------------------------------------------------
Tabbed by: Paul Brannigan

Tuning: Standard

e|--------------------------------------------------------------------------|
B|--------------------------------------------------------------------------|
G|--------------------------------------------------------------------------|
D|-----------------------------------------------------2-0-------0----------|
A|-------0-2---2----1---1----0---0-------------0-2---2-----2---2------------|
E|-0-2-3-----3--------2--------1---------0-2-3-----3---------3--------------|
[ Tab from: http://www.guitartabs.cc/tabs/g/grieg/in_the_hall_of_the_mountain_king_tab_ver_4.html ]
e|--------------------------------------------------------------------------|
B|--------------------------------------------------------------------------|
G|--------------------------------------------------------------------------|
D|--------------------------------------------------------------------------|
A|-------0-2---2----1---1----0---0-------------0-2---2-2--------------------|
E|-0-2-3-----3--------2--------1---------0-2-3-----3-----0-3-2--------------|

e|--------------------------------------------------------------------------|
B|----------------------------------------------------5-3-------3-----------|
G|-------2-4---4----3---3---2---2-------------2-4---4-----4---4-------------|
D|-2-4-5-----5--------4-------3---------2-4-5-----5---------5---------------|
A|--------------------------------------------------------------------------|
E|--------------------------------------------------------------------------|

e|--------------------------------------------------------------------------|
B|--------------------------------------------------------------------------|
G|-------2-4---4----3---3---2---2-------------2-4---4-4-2-------------------|
D|-2-4-5-----5--------4-------3---------2-4-5-----5-------5-4----etc.-------|
A|--------------------------------------------------------------------------|
E|--------------------------------------------------------------------------|

| /  slide up
| \  slide down
| h  hammer-on
| p  pull-off
| ~  vibrato
| +  harmonic
| x  Mute note
============================================================================
Comments