Grieg - In The Hall Of The Mountain King Chords & Tabs

 

In The Hall Of The Mountain King Chords & Tabs

Grieg Chords & Tabs

Version: 1 Type: Tab 1 rating
1 star 2 stars 3 stars 4 stars 5 stars
comments

In The Hall Of The Mountain King Tab

Song : "In The Hall Of The Mountain King"
Artist: Edvard Greig 

Tabbed By ApeXaviour  (apeXaviour@hotmail.com)
Tuning: Standard


A simpler version


Well the classic tune that barely anybody knows the name of,
yet everybody knows the tune to it, 
and will begin humming along to it as soon as you start playing it.
People around me bellow out the strangest words when I play this.
Usually consisting of: "Dum dum dum dum"
But occassionally I get the: "Hey thats that dances of fairies song right?"
Or: "Hey, you ripped that off the Alton Towers TV add. Didn't you!?"
Or even (you must imagine this said by a homosexual lah-deedaah man with a lisp): 
"OH MY GOD its the YOGURT SONG!!!"
Anyway, I could play it on the piano since I was a kid, 
and just translated onto the Guitar.
Email me if you've got any major problems with it, 
and you want to shout obscenities at me



Insanely simple to learn! 
Play it in Staccato if you can, 
except for the two notes I labeled "let ring".
[ Tab from: http://www.guitartabs.cc/tabs/g/grieg/in_the_hall_of_the_mountain_king_tab.html ]
e  ----------------------------------------------------------------
b  ----------------------------------------------------------------
g  ----------------------------------------------------------------
d  ----------------------------------------------------------------
a  ----------0---2---2----1---1---0---0---------------0---2---2----
E  -0--2--3--------3--------2-------1--------0--2--3--------3------



e  ---------------------------------------------
b  ---------------------------------------------
g  ---------------------------------------------
d  ---2--0-----------0--let-ring----------------
a  ---------2-----2-----------------------------
E  ------------3--------------------------------


And repeating the first part again:
e  ----------------------------------------------------------------
b  ----------------------------------------------------------------
g  ----------------------------------------------------------------
d  ----------------------------------------------------------------
a  ----------0---2---2----1---1---0---0---------------0---2---2----
E  -0--2--3--------3--------2-------1--------0--2--3--------3------


Then to end
e  ---------------------------------------------
b  ---------------------------------------------
g  ---------------------------------------------
d  ---2-----------2-----------------------------
a  ------2-----2--------------------------------
E  ---------3--------0---let-ring---------------


Comments