Greyhoundz - Your Puppet And Clown Chords & Tabs

 

Your Puppet And Clown Chords & Tabs

Greyhoundz Chords & Tabs

Version: 1 Type: Bass Tab 0 ratings
1 star 2 stars 3 stars 4 stars 5 stars
comments

Your Puppet And Clown Bass Tab

Song:Ur Puppuet & clown
Artist:Greyhoundz
Album:Greyhoundz
By:Dean Enzoy
Tuning:Standard lng mga tsong!!

Intro:Pakinggan nyo lng mabuti ko pano papsok
|------------|
|------------|
|--0---0-----|
|--------\12-|

Note:Paking nyo lng kung babagal at bibilis
|------------------|
|------------------|
|------------------|
|-1212--7788-44----|
Verse:
PM... .......
|-----------------|
|-----------------|
|-----------------|2x
|-1212--8877--44--|

|-----------------|
|-----------------|
|-1212--8877--44--|2x
|-----------------|
Palitan lng ung dlwa!!

Pre chorus
|-----------------|
|-----------------|
|-----------------|repeat many times
|--1212-7788-44---|
Hold me.....Hold me....
[ Tab from: http://www.guitartabs.cc/tabs/g/greyhoundz/your_puppet_and_clown_btab.html ]
chorus:
Pm.......
|-------------------------------|
|-------------------------------|
|-------------------------------|4x
|-99999999-1010-0-10-0-10101010-|

|---------------------------|
|---------------------------|
|---------------------------|repeat many times hanggang matpos ung chorus
|-0-2h3-2-0-2h3-2-02h3-2~~~-|

repeat verse,Pre Chorus,Chorus

Bridge

|---------------------------------11h12p11--|
|------------------9-11-9-10-11-10----------|
|---------9---11-9--------------------------|8x
|-9-10-12--12-------------------------------|

repeat pre chorus&chorus,verse!!!

End Note:e2ng tab na 2 ay pra sa mga kabanda koh heheh lheo,phoy,fricia at sa mga 
malulufet at makukulet hehehe kila2 nyo na qng cno kau heheheh!!!
Comments