Greyhoundz - Doble Kara Chords & Tabs

 

Doble Kara Chords & Tabs

Greyhoundz Chords & Tabs

Version: 1 Type: Tab 0 ratings
1 star 2 stars 3 stars 4 stars 5 stars
comments

Doble Kara Tab

Hi to all,this is just a sample piece, this is my first tab and i hope you would like
it, i not very about this but i asure u 50% this is correct, so hope you'll enjoy....
to any suggestion and comments just txt me or mail me at 09157808887, zign_kc2@yahoo.com

Tuning Drop D.

[Intro]
[------------------------------]
[------------------------------]
[------------------------------]
[---------4-4-4s5--------------]
[-2--2---------------5--4--4h5-]
[------------------------------]

[------------------------------]
[------------------------------]
[------------------------------]Bhala na kau sa tyming..
[--222-----333----222----333---]
[--222-----333----222----333---]
[--222-----333----222----333---]

[------------------------------]
[------------------------------]
[------------------------------]
[---22----55------33----22-----]
[---22----55------33----22-----]
[---22----55------33----22-----]


Verse:
[ Tab from: http://www.guitartabs.cc/tabs/g/greyhoundz/doble_kara_tab.html ]
[------------------------------]
[------------------------------]
[------------------------------]
[----2--33---2----2--33----2---]
[----2--33---2----2--33----2---]
[----2--33---2----2--33----2---]


Pre chorus:

[------------------------------]
[------------------------------]
[------------------------------]
[---22222-----33333------------]
[---22222-----33333------------]
[---22222-----33333------------]


[------------------------------]
[------------------------------]
[------------------------------]
[---22----5-----3--------------]
[---22----5-----3--------------]
[---22----5-----3--------------]
pero minsan...

Chorus:


[-----------------------------]
[-----------------------------]       \
[-----------------------------]--------\ 4x
[--2--2---333----22---333-----]--------/
[--2--2---333----22---333-----]       /
[--2--2---333----22---333-----]


Here are peoples i would like to thank to:
Floortunnel, jm, mac, marlon, and the rest of the groups,
and this dedicated to you guys, thank you so much..
                            
                                                                    zign ft.
Comments