Greyhoundz - Bonfires And Sandcastles Chords & Tabs

 

Bonfires And Sandcastles Chords & Tabs

Greyhoundz Chords & Tabs

Version: 1 Type: Tab 0 ratings
1 star 2 stars 3 stars 4 stars 5 stars
comments

Bonfires And Sandcastles Tab

   
song:bonfires and sandcastles
artist:greyhoundz
song:leander m.
tune 1 whole step D A F C G D
info:


song legend:press ped pitch up ^
            press ped pitch down v

intro:
    ^  ^ v ^ v                ^ v ^ v         ^ v ^ v  ^ v ^ v
D|--9-------------------||-------------------------------------|
A|----9------12-11------||--9--------12-11---------------------|
F|-----------------11/--||-----------------11---------9--------|
C|----------------------||-------------------------------------|
G|----------------------||-------------------------------------|
D|----------------------||-------------------------------------|

stanza:
     ^ v ^ v           ^ v ^ v  ^ v ^  ^ v ^   ^   ^
D|---------------------------------------------------|
A|--9-------12-11----9---------9------12-----11------|
F|----------------11----------------------------11---|
C|---------------------------------------------------|
G|---------------------------------------------------|
D|---------------------------------------------------|
[ Tab from: http://www.guitartabs.cc/tabs/g/greyhoundz/bonfires_and_sandcastles_tab.html ]
refrain:
D|-----------------------------|
A|-----------------------------|
F|-----------------------------|
C|--6---7\6---6/7---7\6---6/7--|
G|--4---5\4---4/5---5\4---4/5--|
D|--0-0-0\0-0-0/0-0-0\0-0-0/0--|
      .     .     .     .
Interlude/stanza II riff:
     ^ v   ^  ^  ^  ^   ^ v ^  ^  ^    ^
D|--9----------------------------------9--|
A|-------12--12-11-----9------12-11-------|
F|-----------------11---------------11----|
C|----------------------------------------|
G|----------------------------------------|
D|----------------------------------------|
     ^ v ^  ^  ^  ^ v   ^ v ^ v ^ v ^
D|---------------------11---12-11---------|
A|--9------12-11--------------------------|
F|---------------11-----------------11----|
C|----------------------------------------|
G|----------------------------------------|
D|----------------------------------------|

solo:(press pedal pitch down)
D|-----11-12-14^15-14-12-------16-18^20-18-21^23-21^23-22----22^24(3x)-22--|
A|--12-------------------12-14----------------------------22---------------|
F|-------------------------------------------------------------------------|
C|-------------------------------------------------------------------------|
G|-------------------------------------------------------------------------|
D|-------------------------------------------------------------------------|
I hope this is right
                            end
submitted by:leander_85@yahoo.com
                    
                Kc_cut3 
kung mali ito ayusin nyo na lang atleast my batayan na kayo
Comments