Grey Daze - What Is In The Eye Chords & Tabs

 

What Is In The Eye Chords & Tabs

Grey Daze Chords & Tabs

Version: 1 Type: Tab 0 ratings
1 star 2 stars 3 stars 4 stars 5 stars
comments

What Is In The Eye Tab

ok, here they are.... o if ya have n e questions or comments bout em, email me back
at linkinp_rulz@hotmail.com 

Grey Daze "What's in the Eye?" 
Tuning: Standard (EADGBE) 

INTRO: 

e-------------------7---------| 
B-----1-2-1----0-------0------| 
G-----------2----0-------0----| 
D--------------------------0--| 
A--0--------------------------| 
E-----------------------------| repeat 8x w/out pauses between measures 

VERSE: 

Part 1: hold this chord (xx3330) and strum the strings in this order: 
                                        4 3 2 1 2 1 2 and repeat 2x 

Part 2: 

strum all the chords: DUD       p= pull off 

e------0-0-0----------|------0-0-0----------| 
B------0-0-0--2p0-----|------1-0-0--2p0-----| 
G------2-2-2------2---|------2-2-2------2---| 
D------2-2-2--------2-|------2-2-2--------2-| 
A--0---0-0-0----------|--0---0-0-0----------| 
E---------------------|---------------------| 

repeat ALL of the intro (both part 1 and part 2) several times. listen to the song for
timing. for the very last verse: play part 1 once then part once 1, listen to the song
to see what im talkin bout. 



CHORUS: 

let the last note of each measure ring a little (listen to the song for timing) 
[ Tab from: http://www.guitartabs.cc/tabs/g/grey_daze/what_is_in_the_eye_tab.html ]
pre-chorus (play once) 
e------------------| 
B------------------| 
G--5-5-5-6-6-6-7---| 
D--5-5-5-6-6-6-7---| 
A--3-3-3-4-4-4-5---| 
E------------------| 

acutal chorus part 
e--------------|-------------|----------|------------------| 
B--------------|-------------|----------|------------------| 
G--7-7-7-7-----|-------------|----------|--5-5-5-6-6-6-7---| 
D--7-7-7-7-8---|-8-8-8-8-5---|-5-5-5-5--|--5-5-5-6-6-6-7---| 
A--5-5-5-5-8---|-8-8-8-8-5---|-5-5-5-5--|--3-3-3-4-4-4-5---| 
e----------6---|-6-6-6-6-3---|-3-3-3-3--|------------------| 

repeat the actual chorus part 3x 


BRIDGE: 

ok, if u listen to the song (which ull have to do obvisiously lol) the bridge goes from
high to low, the bass is doin that if u listen carefully, so heres the guitar part: 

play this chord pretty fast in this pattern (listen to song for timing): 
/-//-/-//-////-/-// 

e-----| 
B-----| 
G--7--| 
D--x--| 
A--5--| 
E-----| 



OUTRO: 

let each chord ring, listen to song for timing. 

e----------------------|-----| 
B----------------------|-----|play the last chord in this order at a 
G----------------------|--7--|medium speed: //////// 2x 
D--7----5----3----2----|--7--| 
A--7----5----3----2----|--5--|then repeat the WHOLE thing about 4x 
E--5----3----1---------|-----| 


thats it!!! its really not that hard!!! 
Comments