Grey Daze - B12 Chords & Tabs

 

B12 Chords & Tabs

Grey Daze Chords & Tabs

Version: 1 Type: Tab 0 ratings
1 star 2 stars 3 stars 4 stars 5 stars
comments

B12 Tab

   
Awesome song by Chester Benningtons old band called grey daze.

Tuning: STANDARD


Bass intro:
e--------------------------------------|
b--------------------------------------|
g--------------------------------------|
d----4---------------------------------|
a-2-2----4---5-------------------------|
E-----2-2-3-3--------------------------|
(this is played throughout the whole song except Chorus)

Guiitar intro:(after playing the bass intro 4 times)
e---------------12---------------------|
b----------------12-12-----------------|
g--------------------------------------|
d-1s9~(let ring)------9~(let ring)-----|
a--------------------------------------|
E--------------------------------------|
[ Tab from: http://www.guitartabs.cc/tabs/g/grey_daze/b12_tab.html ]
Pre-Chorus
e-------------------------|
b-12-12-12-12-12-12-12-12-|
g-x--x--x--x--x--x--x--x--|
d-9--9--9--9--9--9--9--9--| x4
a-------------------------|
E-------------------------|


Chorus
e--------------------------|
b--------------------------|
g-4-x---x---x---x---x---x--|
d-4-x-4-x-4-x-4-x-5-x-2-x--|
a-2-x-4-x-4-x-4-x-5-x-2-x--| x4
E---x-2-x-2-x-2-x-3-x-0-x--|

Bridge:(first slide on this is fast)
e------------------|
b------------------|
g------------------|
d-1s9~(let ring)---| x4
a------------------|
E------------------|
After the sliding for bridge:
e-12-12------------|
b-12-12------------|
g------------------|
d------------------|
a------------------|
E------------------|

Song ends on a Gb power chord:
e-------------|
b-------------|
g-------------|
d-4-4---------|
a-4-4---------|
E-2-2---------|


Well thats the whole song..peace!
Comments