Gregory And The Hawk - Boats And Birds Chords & Tabs

 

Boats And Birds Chords & Tabs

Gregory And The Hawk Chords & Tabs

Version: 3 Type: Tab

Boats And Birds Tab

-------------------------------------------------------------------------------
			     Boats and Birds - Gregory and the Hawk
-------------------------------------------------------------------------------
Tabbed by:Vicktor3
Email:Vicktor3@yahoo.com

Tuning:Standard
*Capo*: Fret 8

These are all the parts to the song. You repeat them many times just listen the the 
It is easy to tell when it changes. I am not litening to the song and may have missed some 
parts but i will update those later.

This is the Main riff in the song
e|---------------------------------------------------------------------------|
B|---3-------3--------3-------3----------------------------------------------|
G|---------------------------------------------------------------------------|
D|-----0--------0-------0-------0--------------------------------------------|
A|-2------2------------------------------------------------------------------|
E|-----------------3-------3-------------------------------------------------|
[ Tab from: http://www.guitartabs.cc/tabs/g/gregory_and_the_hawk/boats_and_birds_tab_ver_3.html ]
e|---------------------------------------------------------------------------|
B|---3------3------3------3--------------------------------------------------|
G|---------------------------------------------------------------------------|
D|-----0------0------0------0------------------------------------------------|
A|-2------0------------------------------------------------------------------|
E|--------------3------3-----------------------------------------------------|

e|---------------------------------------------------------------------------|
B|---3-------3-------3-------------------------------------------------------|
G|-----0-------0-------0-----------------------------------------------------|
D|-------0--------0----------------------------------------------------------|
A|-2-------------------------------------------------------------------------|
E|---------------------------------------------------------------------------|

e|---------------------------------------------------------------------------|
B|--------3------------------------------------------------------------------|
G|----------0----------------------------------------------------------------|
D|---------------------------------------------------------------------------|
A|-----0------0--------------------------------------------------------------|
E|--h2-----------------------------------------------------------------------|