Gregory And The Hawk - Boats And Birds Chords & Tabs

 

Boats And Birds Chords & Tabs

Gregory And The Hawk Chords & Tabs

Version: 2 Type: Tab

Boats And Birds Tab

Standard Tuning.



Version 1- Played with one guitar.(listen to song for timing)



|-----6-----------------6----------------6-------------6-----------|
|------------6----------------6---------------6-------------6------|
|------------------------------------------------------------------|
|---5----------------5---------------------------------------------|
|-------------------------------------6--------------6-------------|
|------------------------------------------------------------------|


|-----6-----------------6----------------6-------------6-----------|
|------------6----------------6---------------6-------------6------|
|------------------------------------------------------------------|
|---5----------------5---------------------------------------------|
|-------------------------------------6--------------6-------------|
|------------------------------------------------------------------|


|-----6-----------------6----------------6-------------6-----------|
|------------6----------------6---------------6-------------6------|
|------------------------------------------------------------------|
|---5----------------5---------------------------------------------|
|-------------------------------------6--------------6-------------|
|------------------------------------------------------------------|



|-----6-----------------6----------------6-------------6-----------|
|------------6----------------6---------------6-------------6------|
|------------------------------------------------------------------|
|---5----------------5---------------------------------------------|
|-------------------------------------6--------------6-------------|
|------------------------------------------------------------------|



|-----6-----------------6----------------6-------------6-----------|
|------------6----------------6---------------6-------------6------|
|------------------------------------------------------------------|
|---5----------------5---------------------------------------------|
|-------------------------------------6--------------6-------------|
|------------------------------------------------------------------|


|-----6-----------------6----------------6-------------6-----------|
|------------6----------------6---------------6-------------6------|
|------------------------------------------------------------------|
|---5--------------------------------------------------------------|
|--------------------8----------------6-------------6--------------|
|------------------------------------------------------------------|


|-----6-----------------6----------------6-------------6-----------|
|------------6----------------6---------------6-------------6------|
|------------------------------------------------------------------|
|---5--------------------------------------------------------------|
|--------------------8----------------6-------------6--------------|
|------------------------------------------------------------------|


|------------------------------------------------------------------|
|------6--------------6---------------6--------------6-------------|
|------------------------------------------------------------------|
|--------8----------------8----------------8---------------8-------|
|--0--------------------------------6---------------6--------------|
|------------------6-----------------------------------------------|


|------------------------------------------------------------------|
|------6--------------6---------------6--------------6-------------|
|------------------------------------------------------------------|
|--------8----------------8----------------8---------------8-------|
|--0--------------------------------6---------------6--------------|
|------------------6-----------------------------------------------|


|------------------------------------------------------------------|
|------6--------------6---------------6--------------6-------------|
|------------------------------------------------------------------|
|--------8----------------8----------------8---------------8-------|
|--0--------------------------------6---------------6--------------|
|------------------6-----------------------------------------------|


|------------------------------------------------------------------|
|------6--------------6---------------6--------------6-------------|
|------------------------------------------------------------------|
|--------8----------------8----------------8---------------8-------|
|--0--------------------------------6---------------6--------------|
|------------------6-----------------------------------------------|


|------------------------------------------------------------------|
|-----6-----------------6------------------------------------------|
|------------------------------------------------------------------|
|-------8------------------8---------------------------------------|
|---6-----------------6--------------------------------------------|
|------------------------------------------------------------------|



|-----6-----------------6----------------6-------------6-----------|
|------------6----------------6---------------6-------------6------|
|------------------------------------------------------------------|
|---5----------------5---------------------------------------------|
|-------------------------------------6--------------6-------------|
|------------------------------------------------------------------|


|-----6-----------------6----------------6-------------6-----------|
|------------6----------------6---------------6-------------6------|
|------------------------------------------------------------------|
|---5----------------5---------------------------------------------|
|-------------------------------------6--------------6-------------|
|------------------------------------------------------------------|


|-----6-----------------6----------------6-------------6-----------|
|------------6----------------6---------------6-------------6------|
|------------------------------------------------------------------|
|---5----------------5---------------------------------------------|
|-------------------------------------6--------------6-------------|
|------------------------------------------------------------------|


|-----6-----------------6----------------6-------------6-----------|
|------------6----------------6---------------6-------------6------|
|------------------------------------------------------------------|
|---5--------------------------------------------------------------|
|--------------------8----------------6-------------6--------------|
|------------------------------------------------------------------|


|-----6-----------------6----------------6-------------6-----------|
|------------6----------------6---------------6-------------6------|
|------------------------------------------------------------------|
|---5--------------------------------------------------------------|
|--------------------8----------------6-------------6--------------|
|------------------------------------------------------------------|


|------------------------------------------------------------------|
|------6--------------6---------------6--------------6-------------|
|------------------------------------------------------------------|
|--------8----------------8----------------8---------------8-------|
|--0--------------------------------6---------------6--------------|
|------------------6-----------------------------------------------|


|------------------------------------------------------------------|
|------6--------------6---------------6--------------6-------------|
|------------------------------------------------------------------|
|--------8----------------8----------------8---------------8-------|
|--0--------------------------------6---------------6--------------|
|------------------6-----------------------------------------------|

[ Tab from: http://www.guitartabs.cc/tabs/g/gregory_and_the_hawk/boats_and_birds_tab_ver_2.html ]
|------------------------------------------------------------------|
|------6--------------6---------------6--------------6-------------|
|------------------------------------------------------------------|
|--------8----------------8----------------8---------------8-------|
|--0--------------------------------6--------------6---------------|
|------------------6-----------------------------------------------|


|------------------------------------------------------------------|
|------6--------------6---------------6--------------6-------------|
|------------------------------------------------------------------|
|--------8----------------8----------------8---------------8-------|
|--0--------------------------------6--------------6---------------|
|------------------6-----------------------------------------------|


|------------------------------------------------------------------|
|-----6-----------------6------------------------------------------|
|------------------------------------------------------------------|
|-------8------------------8---------------------------------------|
|---6-----------------6--------------------------------------------|
|------------------------------------------------------------------|



|----6-------------------------------------------------------------|
|-------6--------------6----------------6--------------6-----------|
|--------------------------8---------------------------------------|
|-------------------------------------8---------------------8------|
|--8----------------6----------------------------------------------|
|-----------------------------------6--------------6---------------|



|----6-------------------------------------------------------------|
|-------6--------------6----------------6--------------6-----------|
|--------------------------8---------------------------------------|
|-------------------------------------8---------------------8------|
|--8----------------6----------------------------------------------|
|-----------------------------------6--------------6---------------|


|----6-------------------------------------------------------------|
|-------6--------------6----------------6--------------6-----------|
|--------------------------8---------------------------------------|
|-------------------------------------8---------------------8------|
|--8----------------6----------------------------------------------|
|-----------------------------------6--------------6---------------|


|----6-------------------------------------------------------------|
|-------6--------------6----------------6--------------6-----------|
|--------------------------8---------------------------------------|
|-------------------------------------8---------------------8------|
|--8----------------6----------------------------------------------|
|-----------------------------------6--------------6---------------|


|-----6-----------------6----------------6-------------6-----------|
|------------6----------------6---------------6-------------6------|
|------------------------------------------------------------------|
|---5----------------5---------------------------------------------|
|-------------------------------------6--------------6-------------|
|------------------------------------------------------------------|


|-----6-----------------6----------------6-------------6-----------|
|------------6----------------6---------------6-------------6------|
|------------------------------------------------------------------|
|---5----------------5---------------------------------------------|
|-------------------------------------6--------------6-------------|
|------------------------------------------------------------------|


|-----6-----------------6----------------6-------------6-----------|
|------------6----------------6---------------6-------------6------|
|------------------------------------------------------------------|
|---5----------------5---------------------------------------------|
|-------------------------------------6--------------6-------------|
|------------------------------------------------------------------|



|-----6-----------------6----------------6-------------6-----------|
|------------6----------------6---------------6-------------6------|
|------------------------------------------------------------------|
|---5--------------------------------------------------------------|
|--------------------8----------------6-------------6--------------|
|------------------------------------------------------------------|


|-----6-----------------6----------------6-------------6-----------|
|------------6----------------6---------------6-------------6------|
|------------------------------------------------------------------|
|---5--------------------------------------------------------------|
|--------------------8----------------6-------------6--------------|
|------------------------------------------------------------------|


|------------------------------------------------------------------|
|------6--------------6---------------6--------------6-------------|
|------------------------------------------------------------------|
|--------8----------------8----------------8---------------8-------|
|--0--------------------------------6--------------6---------------|
|------------------6-----------------------------------------------|


|------------------------------------------------------------------|
|------6--------------6---------------6--------------6-------------|
|------------------------------------------------------------------|
|--------8----------------8----------------8---------------8-------|
|--0--------------------------------6--------------6---------------|
|------------------6-----------------------------------------------|


|------------------------------------------------------------------|
|------6--------------6---------------6--------------6-------------|
|------------------------------------------------------------------|
|--------8----------------8----------------8---------------8-------|
|--0--------------------------------6--------------6---------------|
|------------------6-----------------------------------------------|


|------------------------------------------------------------------|
|------6--------------6---------------6--------------6-------------|
|------------------------------------------------------------------|
|--------8----------------8----------------8---------------8-------|
|--0--------------------------------6--------------6---------------|
|------------------6-----------------------------------------------|


|------------------------------------------------------------------|
|-----6-----------------6------------------------------------------|
|------------------------------------------------------------------|
|-------8------------------8---------------------------------------|
|---6-----------------6--------------------------------------------|
|------------------------------------------------------------------|


|------------------------------------------------------------------|
|------6--------------6---------------6--------------6-------------|
|------------------------------------------------------------------|
|--------8----------------8----------------8---------------8-------|
|--0--------------------------------6--------------6---------------|
|------------------6-----------------------------------------------|


|-----6-----------------6------------------------------------------|
|------------6----------------6------------------------------------|
|------------------------------------------------------------------|
|---5----------------5-----------------5---------------------------|
|------------------------------------------------------------------|
|------------------------------------------------------------------|



Lets about it. Sorry again that its my first tab, but im almost positive it is right.


Any questions Email Me at Princessgk12@aol.com or IM me at xoTh1sTimeAround


Thanks, Gina.