Gregory And The Hawk - A Wish Chords & Tabs

 

A Wish Chords & Tabs

Gregory And The Hawk Chords & Tabs

Version: 1 Type: Tab

A Wish Tab

This is my first tab i ever submitted, and it's a really great song that should have been up long ago.


Here's all i can pick up so far (simplified, meaning without any fill-ins)
I'm having a bit of trouble, maybe someone can help/comment?

thewhalenguy@hotmail.com


CAPO 3RD FRET

VERSE
e------------------------------------------|
B--------3--------3--------3--------3------|Strange fill-in at last chord
G------0---0----0---0----0---0----0--------|change
D------------------------------------------|
A----3-------2--------0---------2----------|
E------------------------------------------|
[ Tab from: http://www.guitartabs.cc/tabs/g/gregory_and_the_hawk/a_wish_tab.html ]
CHORUS
e-----------------------------------------|
B--------3--------3--------3--------3-----|strum last chord before bridge
G------0---0----0---0----0---0----0---0---|and for outro
D-----------------------------------------|
A----3-------2--------1-------------------|
E-------------------------------3---------|

BRIDGE
e-----------------------------------------|
B----3--------3---------3-------3---------|Not very accurate,
G------0--------0--------0----------------|but best i can do.
D-----------------------------------------|
A----3--------2---------3-------0---------|
E-----------------------------------------|

COMMENT!