Gregorian Chant - Credo Iii (creed) Chords & Tabs

 

Credo Iii (creed) Chords & Tabs

Gregorian Chant Chords & Tabs

Version: 1 Type: Tab 0 ratings
1 star 2 stars 3 stars 4 stars 5 stars
comments

Credo Iii (creed) Tab

#----------------------------------PLEASE NOTE---------------------------------#
#This file is the author's own work and represents their interpretation of the #
#song. You may only use this file for private study, scholarship, or research. #
#------------------------------------------------------------------------------##
From: Rick Kephart 
Subject: TAB: Gregorian Chant: Credo III (Creed)


Creed                CREDO III (De Angelis)                  XVII Century
                   
Tablature by Rick Kephart  rmk@netaxs.com  http://www.netaxs.com/~rmk

A Gregorian Chant. Normal guitar tuning. Chant has no time signature.
"." after a note means hold. "/" means hammer-on. "\" means pull-off.
Keep the notes (except for the dotted notes) evenly spaced.

e|----------------------------|---------------------------|-
b|----------------------------------------------------------
g|--0------------------------------------0------------------
D|-----2-----3--2--2\0----------2/3--2------2------0--------
A|--------3-------------3--3.------------------3-------3.---
E|----------------------------------------------------------

   

 
e -----------------------------|--------------------------------|-
b -------------------------------------------1--------------------
g -------------0--0--0---2--0.---0--0--2--2------4\0--2--2--0.----
D -----2---3------------------------------------------------------
A --3-------------------------------------------------------------
E ----------------------------------------------------------------

   


e ---------------------------|---------------------------------------|-
b ---------------------------------------------------------------------
g --0--------------------------0--0------------------------------------
D -----2----3--2----0--0-------------2--2--------0.--2--3---0----------
A -------3-------3--------3.---------------3--3-------------------3.---
E ---------------------------------------------------------------------

  

 
e -------------------------------|---------------------------|-
b -------------------------------------------------------------
g ----------------0--0--2--2--0.-------------------------------
D -2--2--2--3--0--------------------2--0--3--3--2-----0--------
A -------------------------------------------------3-----3.----
E -------------------------------------------------------------

 

 
e -------------------------------|-----------------|---------------------|-
b -------------------------------------------------------------------------
g -------0--2--0--------------------0--0--0--------------------------------
D -2--2-----------2-----0--0-----------------2-----------0---0--2--0-------
A -------------------3--------3.----------------3.----3---------------3.---
E -------------------------------------------------------------------------



 
e -------------------------------|------------------------------|-
b ---------------1--0---------------------------------------------
g --0--0--2--0.--------0--2--0.-----------------------------------
D ----------------------------------2--2--0.---3---2-----0--------
A ----------------------------------------------------3-----3.----
E ----------------------------------------------------------------

  

 
e ------------------------------|------------------------------|-
b -------------------------------------1---0---------------------
g ----------0---0--2--0-----0.-----2----------0--0--2------0.----
D --2---2----------------3-----------------------------3---------
A ---------------------------------------------------------------
E ---------------------------------------------------------------

   

 
e ----------------------------|----------------------------------|-
b -----------------------------------------------------------------
g --0---0-----------0--2--0.---------------------------------0.----
D -----------2---2--------------------------------0---2--3---------
A -------------------------------3---3----3---3--------------------
E -----------------------------------------------------------------

   

 
e --------------------------|------------------------------------------|-
b ------0---1------------------------------------------------------------
g --2-----------4\0--2--0.----0--------------------------------0/2--0.---
D -------------------------------2--2-----0-------2--2---2--2------------
A -------------------------------------3------3.-------------------------
E -----------------------------------------------------------------------

   

 
e ------------------------|------------------------|-
b -----1--0------------------------------------------
g --2--------0--2--2--0.-----------------------0.----
D -------------------------------2--2---3---3--------
A ----------------------------3----------------------
E ---------------------------------------------------
   
   
[ Tab from: http://www.guitartabs.cc/tabs/g/gregorian_chant/credo_iii_creed_tab.html ]
 
e --------------------------------------------|------------------------|-
b -----------------------------------------------------------------------
g ------------------------------------0/2--0.----0---0--0--2-----0-------
D ---2--0/3--2-----0--------0--2--3---------------------------3-----2.---
A --------------3-----3---3----------------------------------------------
E -----------------------------------------------------------------------

    

 
e ---------------------------------|----------------------------------|-
b ----------------------------------------------------------------------
g ---0--------------------------------0--0--0---2--0---0--------0--0.---
D -------2------3--2-----0--0-----------------------------2--3----------
A -----------3--------3--------3.---------------------------------------
E ----------------------------------------------------------------------

   

 
e --------------------------|--------------------------------|-
b ----------------------------------------0--1-----------------
g -----------------------------------0/2---------4\0--2--0.----
D -----0---2----3---0.------------2----------------------------
A -3--------------------3.-----3-------------------------------
E -------------------------------------------------------------

 

 
e ------------------------------------|---------------------------
b ----------------------------------------------------------------
g --0--0---0-----------------------------0--0--0------------------
D ------------2---2---3--2-----0------------------2---2---------0-
A --------------------------3-----3.---------------------3---3----
E ----------------------------------------------------------------

    

 
e ---------------|----------------------------------|-
b ------------------------------1--0------------------
g ------------------0--0--2--0---------0---2--2--0.---
D --0---2--0------------------------------------------
A ------------3.--------------------------------------
E ----------------------------------------------------

   
 
e ---------------------------------|-------------------------------------|-
b -----------------------------------1--1----------1-----------------------
g --0---0----------------------------------2---2-------0---0.---2--2--0.---
D ---------2-------3--2--2--0.---------------------------------------------
A ------------3----------------3.------------------------------------------
E -------------------------------------------------------------------------

   


e ----------------------|-----------------------------------------|-
b ------------------------------------------------------------------
g --------0--0---2--0.-----0-----0----------------------------------
D -----2----------------------3------2---3--0--2--3--2-----0--------
A --3---------------------------------------------------3-----3.----
E ------------------------------------------------------------------

  


e ----------------------------|--------------------|------------------------|-
b -------------------------------------1--0-----------------------------------
g ---------0---0-----------0.---2---0--------2--0.---------------0--0--2--0.--
D ------2---------2--3--2---------------------------------2---2---------------
A --3-------------------------------------------------3-----------------------
E ----------------------------------------------------------------------------

 


e -----------------------------------|--------------------------------|-
b ----------------------------------------------------------------------
g --0--0-------------------------------0--0--0.-------------------------
D --------2---2-------3--2-----0-----------------2---2.------0--0-------
A ----------------3---------3-----3.---------------------3---------3.---
E ----------------------------------------------------------------------

  


e ---------------------------------|--------------------------------|-
b ------------------------------------------0--1-----1--0-------------
g -0--0--0--0--0---2-----0---0--------0--2--------2--------0--2--0.---
D --------------------3---------2.------------------------------------
A --------------------------------------------------------------------
E --------------------------------------------------------------------

   


e ----------------------------------|-----------------------------------
b ----------------------------------------------------------------------
g ------------0------------------------0--0----------0---0---0--0--2--0-
D --2--0---2-----3--2---0--2--0.--------------2-------------------------
A -------------------------------3.--------------3.---------------------
E ----------------------------------------------------------------------

 


e ---------------|--------------------------------|-
b -----------------1--------------------------------
g --------------------4\2--0------2--0---------0.---
D --3--2--3--2.----------------2---------2--3-------
A --------------------------------------------------
E --------------------------------------------------

   


e ---------------------------------------------------------|-
b ------------------1--0-------------------------------------
g --0---------------------0--2.-0--------0-------------------
D -----2-----0.--------------------2--3--------0.------------
A --------3-----3.--------------------------3------3---3.----
E -----------------------------------------------------------

    A--------------------------------------------------men.


Comments