Greenwheel - Sustain You Chords & Tabs

 

Sustain You Chords & Tabs

Greenwheel Chords & Tabs

Version: 1 Type: Tab 0 ratings
1 star 2 stars 3 stars 4 stars 5 stars
comments

Sustain You Tab

   
-------------------------------------------------------------------------------
			     "SUSTAIN YOU" - Greenwheel
-------------------------------------------------------------------------------
Tabbed by: Showerhead
Email: scikdowninahole@aol.com

This is an amazing song by an amazing band.  This song sounds best acoustic,
the way I tabbed it out.  The strumming is easy once you hear the song.
It's my first tab, so please be cruel!

Tuning:  Drop D

Intro:
e|-----------------------------------------------------------------------------|
B|--8-8-8-8-9-9-9-9-0-8-8-8-8-9-9-9-9-0-----------9-------9--------------------|
G|--8-8-8-8-8-8-8-8-8-8-8-8-8-8-8-8-8-8------------8-------8-------------------|
D|--6-6-6-6-6-6-6-6-6-6-6-6-6-6-6-6-6-6--10--8--6---8---6---8--6---------------|
A|--6-6-6-6-6-6-6-6-6-6-6-6-6-6-6-6-6-6--10--8--6-------6------6---------------|
D|---------------------------------------10--8--6-------6------6---------------|

Verse:
e|-----------------------------------------------------------------------------|
B|-----------------------------------------------------------------------------|
G|-----------------------------------------------------------------------------|
D|--8/10-10-10-10-x-x-x-x-10-10-10-10---8/10-10-10-10-x-x-x-x-10-10-10-10------|
A|--8/10-10-10-10-x-x-x-x-10-10-10-10---8/10-10-10-10-x-x-x-x-10-10-10-10------|
D|--8/10-10-10-10-x-x-x-x-10-10-10-10-- 8/10-10-10-10-x-x-x-x-10-10-10-10------|

PreChorus
e|-----------------------------------------------------------------------------|
B|-----------------------------------------------------------------------------|
G|-------------8-8-8-----------------------------------------------------------|
D|-10-10-10-x--6-6-6--8-8-8-x-x-x---10-10-10-10---8-8-8------------------------|
A|-10-10-10-x--6-6-6--8-8-8-x-x-x---10-10-10-10---8-8-8------------------------|
D|-10-10-10-x---------8-8-8-x-x-x---10-10-10-10---8-8-8------------------------|

Chorus
e|-----------------------------------------------------------------------------|
B|-----------------------------------------------------------------------------|
G|-8-8-8-8-8-8-8-8-------------------------------------------------------------|
D|-6-6-6-6-6-6-6-6-8-8-8-8-8-8-8-8-10-10-10-10-10-10-10-10-6-6-6-6-6-6-6-6-----|
A|-6-6-6-6-6-6-6-6-8-8-8-8-8-8-8-8-10-10-10-10-10-10-10-10-6-6-6-6-6-6-6-6-----|
D|-----------------8-8-8-8-8-8-8-8-10-10-10-10-10-10-10-10-6-6-6-6-6-6-6-6-----|
[ Tab from: http://www.guitartabs.cc/tabs/g/greenwheel/sustain_you_tab.html ]
Chorus (cont'd)
e|-----------------------------------------------------------------------------|
B|-----------------------------------------------------------------------------|
G|-----------------------------------------------------------8-8---------------|
D|-10-10-10-10-10-10-10-10-5-5-5-5-5-5-5-5-3-3-3-3-3-3-3-3---6-6---8-8---------|
A|-10-10-10-10-10-10-10-10-5-5-5-5-5-5-5-5-3-3-3-3-3-3-3-3---6-6---8-8---------|
D|-10-10-10-10-10-10-10-10-5-5-5-5-5-5-5-5-3-3-3-3-3-3-3-3---------8-8---------|

Bridge1
e|-----------------------------------------------------------------------|
B|--8-8-8-8-9-9-9-9-0-8-8-8-8-9-9-9-9-0-8-8-8-8-9-9-9-9-0-8-~------------|
G|--8-8-8-8-8-8-8-8-8-8-8-8-8-8-8-8-8-8-8-8-8-8-8-8-8-8-8-8-~------------|
D|--6-6-6-6-6-6-6-6-6-6-6-6-6-6-6-6-6-6-6-6-6-6-6-6-6-6-6-6-~------------|
A|--6-6-6-6-6-6-6-6-6-6-6-6-6-6-6-6-6-6-6-6-6-6-6-6-6-6-6-6-~------------|
D|-----------------------------------------------------------------------|

Bridge2 (cont'd)
e|-----------------------------------------------------------------------------|
B|--9-----------------9--------------------------------------------------------|
G|----8------------8-----8-----------------------------------------------------|
D|------8-----10---8-------8--6---10---8-8-8-8-8-------------------------------|
A|--------6---10---8--------------10---8-8-8-8-8-------------------------------|
D|------------10---8--------------10---8-8-8-8-8-------------------------------|

Outro
e|-----------------------------------------------------------------------------|
B|-----------------------------------------------------------------------------|
G|-----------------------------------------------------------8-8-8-8-8-8-8-8---|
D|-10-10-10-10-10-10-10-10-5-5-5-5-5-5-5-5-3-3-3-3-3-3-3-3---6-6-6-6-6-6-6-6---|
A|-10-10-10-10-10-10-10-10-5-5-5-5-5-5-5-5-3-3-3-3-3-3-3-3---6-6-6-6-6-6-6-6---|
D|-10-10-10-10-10-10-10-10-5-5-5-5-5-5-5-5-3-3-3-3-3-3-3-3---------------------|

Outro (cont'd)
e|-----------------------------------------------------------------------------|
B|-----------------------------------------------------------------------------|
G|-8-8-8-8-8-8-8-8----------------8~-------------------------------------------|
D|-6-6-6-6-6-6-6-6---10~----8~----6~-------------------------------------------|
A|-6-6-6-6-6-6-6-6---10~----8~----6~-------------------------------------------|
D|-------------------10~----8~-------------------------------------------------|

| /  slide up
| \  slide down
| h  hammer-on
| p  pull-off
| ~  vibrato
| +  harmonic
| x  Mute note


Song Layout:

Intro
Verse 4x
Prechorus
Chorus
Verse 4x
Prechorus
Chorus
Bridge1
Bridge2
Chorus
Bridge1 2x
Outro
===============================================================================
Comments